David Guetta - Titanium, аккорды

Прокрутка
Тональность
Шрифт
100
 1|-------------------------------------------------------------------------------------------|
 2|------------8----------------------------------------------8----------------------8--------|
 3|-------10---------10---------8-----10-----8----------10--------10------------10-------10---|
 4|----8-----8----8-----8----8-----8------8----8-----8-----8----8-----8------8-----8---8----8-|
 5|-6-----------------------------------------------------------------------------------------|
 6|------------------------6----------------------8-----------------------4-------------------|

 1|---------------------------------------------------------------------4--3--1-1--3--1-------|
 2|------------8----------------------------------------------8--------------------------4----|
 3|-------10---------10---------8-----10-----8----------10--------10--------------------------|
 4|----8-----8----8-----8----8-----8------8----8-----8-----8----8-----8-----------------------|
 5|-6-----------------------------------------------------------------------------------------|
 6|------------------------6----------------------8----------------------4--------------------|

This song is pretty much the same thing whole way through
 
 

Видео