David Guetta - Sexy Bitch, аккорды

Прокрутка
Тональность
Шрифт
100
e |--------------------------------------2--2--2--2-|
B |--0--0--0--0--2--2--2--2--3--3--3--3-------------|
G |-------------------------------------------------| 2x
D |-------------------------------------------------|
A |-------------------------------------------------|
E |-------------------------------------------------|

e |--0--0--0--0--2--2--2--2--3--3--3--3--7--7--7--7-|
B |-------------------------------------------------|
G |-------------------------------------------------|
D |-------------------------------------------------|
A |-------------------------------------------------|
E |-------------------------------------------------|

e |--2--2--2--2--4--4--4--4--5--5--5--5--9--9--9--9-|
B |-------------------------------------------------|
G |-------------------------------------------------|
D |-------------------------------------------------|
A |-------------------------------------------------|
E |-------------------------------------------------|

e |-------------------------------------------------|
B |-------------------------------------------------|
G |-------------------------------------------------| Repeat throughout 
D |--4---4---7---7---12---12----7---7---9-----------| the entire song
A |--2---2---5---5---10---10----5---5---7-----------|
E |-------------------------------------------------|
 
 

Видео