David Guetta - Titanium, аккорды

Прокрутка
Тональность
Шрифт
100
Verse:
e|-0-0-2-2-0-0-----0-0-----0-0-2-2-0-0-0-0-2-2-0-0-0-0-2-2-0-0-|
B|-------------3-3-----3-3-------------------------------------|
G|-------------------------------------------------------------|
D|-------------------------------------------------------------|
A|-------------------------------------------------------------|
E|-------------------------------------------------------------|
                                               
e|-----0-0-----0-0-2-2-0-3-3-2-2-0-0-2-2-| 
B|-3-3-----3-3---------------------------| 
G|---------------------------------------| 
D|---------------------------------------| 
A|---------------------------------------| 
E|---------------------------------------| 

Refrain: G A F#m Bm }x8     
 
 

Видео