David Guetta - Titanium, аккорды

Прокрутка
Тональность
Шрифт
100
Tuning:Standard

e|----------------------------------------|
B|----------------------------------------|
G|----------------------------------------|
D|----------------------------------------|
A|-------8-8-10-10-8-8-----6-6-8-8-6-6----|
E|-11-11---------------6-6----------------|

e|----------------------------------------|
B|----------------------------------------|
G|----------------------------------------|
D|----------------------------------------|
A|-----8-8-10-10-8-8-------8-8-10-10-8-8--|
E|-8-8---------------12-12----------------|

e|----------------------------------------|
B|----------------------------------------|
G|----------------------------------------|
D|----------------------------------------|
A|-------8-8-10-10-8-8-----6-6-8-8-6-6----|
E|-11-11---------------6-6----------------|

e|----------------------------------------|
B|----------------------------------------|
G|----------------------------------------|
D|----------------------------------------|
A|-----8-8-10-10-8-11-10-8-10-------------|
E|-8-8------------------------11----------|
 
 

Видео