Дайте Танк - Из земли, аккорды новинка

Прокрутка
Тональность
Шрифт
100
Intro / Куплет:
E|-----------------------------------------------------------------------------|
B|-----------------------------------------------------------------------------|
G|-----------------------------------------------------------------------------|
D|-----------------------------------------------------------------------------|
A|-9-7-------9-7-------9-7-------9-7-------7-6-----6-7-6-----------------------|
E|-----9-9-9-----9-9-9-----9-9-9-----7-7-7-----7-7-------7-7/9-9-9-9-7-9-9-9-9-|

Горящие люстры, горячая пища
Грязь прилипает к тому, кто чище
Телепатия, телеповторы
Пса моего покусали воры

Трём головам в окне не спится
Экран синим им светит на лица
А мы снаружи, мы ловим звуки
У меня грязные мысли, у тебя холодные руки

Проигрыш: Am C G E Am }x2

Куплет 2:
E|-----------------------------------------------------------------------------|
B|-----------------------------------------------------------------------------|
G|-----------------------------------------------------------------------------|
D|-----------------------------------------------------------------------------|
A|-9-7-------9-7-------9-7-------9-7-------7-6-----6-7-6-----------------------|
E|-----9-9-9-----9-9-9-----9-9-9-----7-7-7-----7-7-------7-7/9-9-9-9-7-9-9-9-9-|

А я построен без единого гвоздя
Меня собрали и без отвёртки и шурупа
Океан говна в моторке бороздя
Наугад крутить штурвал совсем не глупо

А помыт и перекрашен в золотой
Заправлен полный бак, номера перебиты
И в этот мир я приглашён, как понятой
Я распишусь, когда земля сойдёт с орбиты

Припев: 
Am                   C
А мы восстанем из земли
                         G
Мы будем петь и жечь кремли
              E                 Am
Пустые пастбища, мы люди с кладбища

Комментарий автора:

Припев играется 2 раза аккордами, 2 раза - табулатурой.
 
 
Свернуть Распечатать

Видео