Запрещают песни Цоя, Агата Кристи, Наутилус Помпилиус, Зиверт
Отвечаем в отдельной теме

Дайте танк (!) - Бардак, аккорды правильный подбор

Прокрутка
Тональность
Шрифт
100
[Куплет 1]
           Em            D#
 Число фонарей умножая на два
C                       Bm
 Белые лампы блестят из луж
Em
 Под подошвами нашими
          F#
 Липкая грязь, сырая листва
C                       B   Bm A# Am
 А над головами холодный душ

Am
 Я до нитки промок вдоль и поперек
C
 Капюшон не помог и не уберег
Em                             Bm
 Догоняй меня и ныряй под козырек

e|-5/7---------------------------|
B|------10---8-------------------|
G|---------------7/9-------------|
D|-------------------------------|
A|-------------------------------|
E|-------------------------------|

Bm A# Am

[Перед-припев]
Am                               C
 Что поделаешь, проведем вечер так
                           Em
 Деревянная лестница на чердак
                            Bm
 Упирается в люк, а на нем паук

 А вокруг — бардак

[Припев]:
G                    D
 Я никого не вожу сюда
                        Am
 Ключи у дворника выпросил
                             C
 А эти диски и комиксы — ерунда
 Давно бы выбросил

G                      D
 Я тут не часто бываю сам
                      Am
 Подзапустил свою конуру
                                   C
 А все гитары с баянами — просто хлам
 Дай пару минут, я уберу


e|-------------------|--------------------|--------------------|----------------------|
B|-------------------|--5--3--------------|--------------------|--------5-3-----------|
G|-------------------|-------4--2--0--2---|-4--2--0----------4-|----2-4-----4-2-----0-|
D|-------------------|--------------------|-----------2--0-----|----------------------|
A|-------------------|--------------------|--------------------|----------------------|
E|-------------------|--------------------|--------------------|----------------------|

e|-------------------|--------------------|------------------5-|----3--2--------------|
B|-------------------|-5--3----------3----|-5--7--8--7--5------|------------3--5------|
G|------4------------|------4--2--0-------|--------------------|----------------------|
D|----------4--------|--------------------|--------------------|----------------------|
A|-------------------|--------------------|--------------------|----------------------|
E|-------------------|--------------------|--------------------|----------------------|

[Куплет 2]
       Em
 Ты, наверное, хочешь чая
          D
 Но из напитков только ром
        C
 Поговорим об Александре Первом
 Bm
 Или о Втором

          Em
 Устроим конкурс мокрых маек
           D
 Погромче радио включим
            C
 Эффектный фон — грохочет гром
          Bm
 Сверкает молния в ночи

         C
 Коронный трюк
            D
 Ходьба по комнате без брюк
           G
 Сезон дождей не так уж плох
          Em
 Когда за ним еще полгода вьюг

[Перед-припев]
C
 Ну и дела!
           D
 Я стал тебе насильно мил
        G
 Ты поняла — я все подстроил
       Em           Bm A# Am  Am G# G  F#
 Даже тучи подкупил

[Припев]:
G                    D
 Я никого не вожу сюда
                        Am
 Ключи у дворника выпросил
                             C
 А эти диски и комиксы — ерунда
 Давно бы выбросил

G                      D
 Не оставляй меня одного
                       Am
 Мне надоело выть на луну
                                   C
 Ты не пугайся, наручники — баловство
                              Am   C
 Чуть-чуть поиграем — и расстегну

[Финал]
                              Em  Bm
 Чуть-чуть поиграем — и расстегну
                              Am  C
 Чуть-чуть поиграем — и расстегну
                              Em  Bm
 Чуть-чуть поиграем — и расстегну


e|-------------------|--------------------|--------------------|----------------------|
B|-------------------|--------------------|-5--3---------------|----------------------|
G|-------------------|--------------------|-------4--2--0--2---|-4--2--0------------2-|
D|-------------------|--------------------|--------------------|----------2--0--------|
A|-------------------|--------------------|--------------------|----------------------|
E|-------------------|--------------------|--------------------|----------------------|

e|---------------------------|---------------------7---7--|-7---7------7--------------|
B|---------------------------|----------------------------|----------------7--8--10---|
G|----0-----0--2--0----------|----------------------------|---------------------------|
D|-------------------4---5---|-7---------------9----------|---------------------------|
A|---------------------------|----------------------------|---------------------------|
E|---------------------------|----------------------------|---------------------------|

e|--------------------8---8--|-8---8-------8-10--7--5-----|---------------------------|
B|--------------7------------|----------------------------|---8--7--5---3---5--3--5---|
G|---------------------------|----------------------------|---------------------------|
D|---------------------------|----------------------------|---------------------------|
A|---------------------------|----------------------------|---------------------------|
E|---------------------------|----------------------------|---------------------------| 
 
 
Свернуть Распечатать

Аппликатуры аккордов

Аккорд EmАккорд D#Аккорд CАккорд BmАккорд F#Аккорд BАккорд A#Аккорд AmАккорд GАккорд DАккорд G#
помощники
Liza_moisHromoy
118,945 290 12.10.2020

Видео