ДДТ - Далеко-далеко, аккорды

Прокрутка
Тональность
Шрифт
100
Intro: (12-струн.)
E|-------^-|
B|-----^---|
G|---^-----|
D|---------|
A|-^-------|
E|---------|

Куплет: (1-я и 3-я строчки)
 Am     F7+    D9
E|----0---|----0---|------0-|--------|
B|-------1|-1-----1|----3-3-|--------|
G|--2---2-|--------|--2---2-|--------| x4
D|--------|3-3---3-|4-----4-|--------|
A|0-------|--------|--------|--------|
E|--------|--------|--------|--------|

(2-я и 4-я строчки куплета):
  Am     F7+    D9     G  G4 G
E|----0---|----0---|------0-|3-3-----|
B|-------1|-1-----1|----3---|0-0-1-0-|
G|--2---2-|--------|--2-----|0-0-----| 
D|--------|3-3---3-|4-------|0-0-----|  
A|0-------|--------|--------|2-2-----|
E|--------|--------|--------|3-3-----|

Am   F7+   D9
 Далеко, далеко,
Am     F7+   D9 G G4 G
 В беззаботные дни,
Am     F7+     D9
 Я смотрю, как легко
Am   F7+  D9 G G4 G
 Исчезают они.

Em    D9   G G4 G
 Слышу я тишину,
Em    D9   G G4 G
 Что молчит в тишине,
Em    D9   G G4 G
 Вижу мир да войну,

Для окончания куплета:
  F7+
E|-0------|
B|-1------|  
G|-2------|
D|-3------|
A|-0------|
E|-0------|

Em    D9     F7+
 Грею ночь на огне.

Припев:
 Am     D9 D4  D9 G   C  Em
E|0-------|0---3---|0---3---|0---0---|
B|1-------|3---3---|3---0---|1---0---|   
G|2-------|2---2---|2---0---|0---0---|
D|2-------|0---0---|0---0---|2---2---|
A|0-------|0---0---|0---2---|3---2---|
E|0-------|--------|----3---|0---0---|

     Am  D9 D4 D9 G C Em
    Я - дорога!
     Am  D9 D4 D9 G C Em
    Дорога!
     Am  D9 D4 D9 G C Em
    Да-да-дорога!
     Am  D9 D4 D9 G C Em
    Дорога!

Am   F7+   D9
 Далеко, далеко,
Am     F7+   D9 G G4 G
 Где ни зла, ни беды,
Am   F7+   D9
 Ты дала мне воды,
Am     F7+   D9 G G4 G
 Я нырнул глубоко.

Em    D9   G G4 G
 Женовала луна,
Em    D9   G G4 G
 Целовавшая день,
Em    D9   G G4 G
 Ты вдали так видна,
Em    D9     F7+
 Рядом ветер да тень.

Припев:
 Am     D9 D4  D9 G   C  Em
E|0-------|0---3---|0---3---|0---0---|
B|1-------|3---3---|3---0---|1---0---|   
G|2-------|2---2---|2---0---|0---0---|
D|2-------|0---0---|0---0---|2---2---|
A|0-------|0---0---|0---2---|3---2---|
E|0-------|--------|----3---|0---0---|

     Am  D9 D4 D9 G C Em
    Я - дорога!
     Am  D9 D4 D9 G C Em
    Дорога!
     Am  D9 D4 D9 G C Em
    Да-да-дорога!
     Am  D9 D4 D9 G C Em
    Дорога!

Em     D9     G G4 G
 Шли вдвоем по реке,
Em     D9 G G4 G
 Собирая лады.
Em     D9     G G4 G
 Но его лишь следы
Em   D9     F7+
 Вижу я на песке.

Припев:
 Am     D9 D4  D9 G   C  Em
E|0-------|0---3---|0---3---|0---0---|
B|1-------|3---3---|3---0---|1---0---|   
G|2-------|2---2---|2---0---|0---0---|
D|2-------|0---0---|0---0---|2---2---|
A|0-------|0---0---|0---2---|3---2---|
E|0-------|--------|----3---|0---0---|

     Am  D9 D4 D9 G C Em
    Я - дорога!
     Am  D9 D4 D9 G C Em
    Дорога!
     Am  D9 D4 D9 G C Em
    Да-да-дорога!
     Am  D9 D4 D9 G C Em
    Дорога!

Am   F7+   D9
 Далеко, далеко...
 
 

Видео