ДДТ - Осенняя, аккорды

Прокрутка
Тональность
Шрифт
100
  Am F   G     E     Am Am F   G     E     Am
E|-0-0-1-1-----|-3-3-3-1-3-1-0-|-0-0-1-1-----|-3-3-3-1-3-1-0-
B|---------1-0-|---------------|---------1-0-|---------------
G|-------------|---------------|-------------|---------------
D|-------------|---------------|-------------|---------------
A|-------------|---------------|-------------|---------------
E|-------------|---------------|-------------|---------------
  Am F   G     E     Am
E|-0-0-1-1-----|---------------|
B|---------1-0-|---1-0---------|
G|-------------|-0-------------|
D|-------------|---------------|
A|-------------|---------------|
E|-------------|---------------|
 
   F     G    E     Am
Небеса на коне на осеннем параде
    F     G         E       Am
Месят тесто из тех, кто представлен к награде.
   F   G      E
А по ящику врут о войне...

   F     G    E     Am
Я живу на весах в это качество года
   F     G    E     Am
Моя песня, конечно, дождливого рода.
   F     G    E     Am
Моя песня не спета и не одета.

   F     G    E     Am
Моя песня - ответ письмам Анны и Лизы;
   F     G    E     Am
Брызги ветра висят на промокших карнизах.
   F     G    E     Am
Собрала их губами весна и исчезла она.

   F     G    E     Am
Я с бедой на плечах доползу до дороги.
   F     G    E     Am
Умереть - ничего, если выпить немного.
   F     G    E     Am
Но мешает уйти от тебя наше "Я".

   F     G    E     Am
Где опастности бред, там живые могилы.
   F     G    E     Am
Нас за верность их лет поднимают на вилы.
   F     G    E     
Этой осенью платим за свет.

   F     G    E     Am
Пляшем на виражах, повороты веками,
   F     G    E     Am
И никому нет конца, даже тем, кто не с нами.
   F     G    E    
Наша песня с тобой в облаках.

   F     G    E     Am
И пока ничего, ничего не случилось.
   F     G    E     Am
Я вчера еще помнил, что жизнь мне приснилась.
   F     G    E     
Этой осенью стала она...

   F     G    E     Am
И если вокруг - одно лихо,
   F     G    E     Am
И если кругом слишком тонко,
   F     G    E     Am
Люби всех нас, Господи, тихо,
   F     G    E     Am
Люби всех нас, Господи, громко.

   F     G    E     Am
Иногда наша жизнь зарастает цветами.
   F     G    E     Am
Это значит, мой друг, Он прошел между нами...
   F     G    E     
Но увидеть его нелегко.

   F     G    E     Am
И если вокруг - одно лихо,
   F     G    E     Am
И привычное нам слишком тонко,
   F     G    E     Am
Люби всех нас, Господи, тихо,
   F     G    E     Am
Люби всех нас, Господи, громко.
   F     G    E     Am
Люби всех нас, Господи, тихо, Люби всех нас,
   F  G E  
Господи...
 
 

Видео