ДДТ - Это все, аккорды

Прокрутка
Тональность
Шрифт
100
Вступление:
 G     G       Dadd9   Dadd9     C     C
E|--------------------|------0--------------|------------------|
B|----310------3-1-0--|----3---31----3-1-0-1|---10-------1-0---|
G|---0----0---0------0|---2---------2-------|--0---0----0----0-|
D|--0--------0--------|--0---------0--------|-2------2-2------2|
A|-2--------2---------|-0---------0---------|3--------3--------|
E|3--------3----------|2---------2----------|------------------|
 
  C         D
E|--------------|----2----|
B|----1-0-------|---3-----|
G|---0----2-0-2-|--2------|
D|--2-----------|-0-------|
A|-3------------|---------|
E|--------------|---------|

Тема на протяжении всей песни:
E|------|------|------|------|------|-----2~3~2-|
B|------|------|------|------|------|----3------|
G|---0--|---0--|---2--|---0--|---0--|---2-------|
D|--0-0-|--0-0-|--0-0-|--2-2-|--2-2-|--0--------|
A|------|------|------|------|------|-0---------|
E|-3----|-3----|-2----|-0----|-3----|-----------|
 8 раз   на 9-ом 4 раза 4 раза 2 раза   1 раз

       вступать
      (еще 4 раза)

Побледневшие листья окна
Зарастают прозрачной водой
У воды нет ни смерти,ни дна
Я прощаюсь с тобой

Горсть тепла после долгой зимы
Донесем пять минут до утра
Доживем наше море вины
Поглощает время-дыра

Припев:
  Это все, что останется после меня
  Это все, что возьму я с собой-

С нами память сидит у стола
А в руке ее пламя свечи
Ты такой, хорошей была
Посмотри на меня, не молчи

Крики чайки на белой стене
Окольцованы черной луной
Нарисуй что-нибудь у окна
И шепни на прощанье рукой

Припев.

Две мечты да печали стакан
Мы воскреснув допили до дна
Я не знаю зачем тебе дан
Правит мною дорога луна

И не плачь, если можешь - прости
Жизнь- не сахар, а смерть нам- не чай
Мне свою дорогу нести
До свидания друг и прощай-

Припев.

Это все!

Комментарий автора:

 Dadd9
|----0----|
|----3----|
|----2----|
|----0----|
|----0----|
|----2----|
 
 
Свернуть Распечатать

Видео