ДДТ - Коронована луной, аккорды

Прокрутка
Тональность
Шрифт
100
Вступление:
 Em7           Em7+5       G6          D
------3-------3-----------3-------------0------------2h3-----
-----3-3-----3-----------3-------------0------------3---3----
----0---0---0-----0--0--0----0---0----0------------2-----2---
-----------------------0----5---4-------------0--0-----------
--2--------2-----2--3------------------------2---------------
------------------------------------3-----2h3----------------

       |-Метка #1
Em7      Em7+5     Em      D
-----3-----------3-----------0--------2h3---
----3-----------3----------0--0-0----3---3--
---0-----0--0--0---0--0---0----0----2-----2-
--------------0---5--4---9--9-----0---------
-2------2--3--------------------------------
--------------------------------------------
(Еще раз проиграть, до Метка #1)

(Первая часть первого куплета, играть так же как и проигрыш,
только последний кусок думайте чем заменить чтоб удобней было)

Коронована луной
Как начало высока-а-а
Как победа не со мной
Как надежда не легка-а-а-а

Em7 Em7+5      G      D
За окном стеной мете-е-е-ель
Em7 Em7+5      G6 D
Жизнь по горло занесло
Em7 Em7+5       G      D
Сорвало финал с пете-е-е-ель
Em7 Em7+5    G  D
И поела все тепло

Припев:
Em     C     G
Играй как можешь сыграй
     D     Em
Закрой глаза и вернись
Em   C     G
Не пропади,но растай
     D    Em
Да колее поклонись
Em   C     G
Мое окно отогрей
       D   Em
Пусти по полю весной
Em    C     G
На доживи,но созрей
      D     Em
И будешь вечно со мной
Em    C     G
И будешь вечно со мной
       D    Em  C G D
И будешь вечно со мно-о-о-ой
   Em  C G D
Со мно-о-о-ой

Куплет = половна проигрыша:
 Em7           Em7+5       G6          D
------3-------3-----------3-------------0------------2h3-----
-----3-3-----3-----------3-------------0------------3---3----
----0---0---0-----0--0--0----0---0----0------------2-----2---
-----------------------0----5---4-------------0--0-----------
--2--------2-----2--3------------------------2---------------
------------------------------------3-----2h3----------------

       |-Метка #1
Em7      Em7+5     Em      D
-----3-----------3-----------0--------2h3---
----3-----------3----------0--0-0----3---3--
---0-----0--0--0---0--0---0----0----2-----2-
--------------0---5--4---9--9-----0---------
-2------2--3--------------------------------
--------------------------------------------

Ищут землю фонари
К небу тянется свеча-а-а-а
На снегу следы зари
Крылья павшего луча

Что же, вьюга, налива-а-а-ай
Выпьем время на тощак
Я спою ты в такт прола-а-а-ай
О затерянных веща-ах

Припев:
Em     C     G
Играй как можешь сыграй
     D     Em
Закрой глаза и вернись
Em   C     G
Не пропади,но растай
     D    Em
Да колее поклонись
Em   C     G
Мое окно отогрей
       D   Em
Пусти по полю весной
Em    C     G
На доживи,но созрей
      D     Em
И будешь вечно со мной
Em    C     G
И будешь вечно со мной
       D    Em  C G D
И будешь вечно со мно-о-о-ой
   Em  C G D
Со мно-о-о-ой

Куплет = половна проигрыша:
 Em7           Em7+5       G6          D
------3-------3-----------3-------------0------------2h3-----
-----3-3-----3-----------3-------------0------------3---3----
----0---0---0-----0--0--0----0---0----0------------2-----2---
-----------------------0----5---4-------------0--0-----------
--2--------2-----2--3------------------------2---------------
------------------------------------3-----2h3----------------

       |-Метка #1
Em7      Em7+5     Em      D
-----3-----------3-----------0--------2h3---
----3-----------3----------0--0-0----3---3--
---0-----0--0--0---0--0---0----0----2-----2-
--------------0---5--4---9--9-----0---------
-2------2--3--------------------------------
--------------------------------------------

Осторожно не спеша
С белым ветром на груди
Где в умерший блек ладьи
Ждет озябшая душа.

Комментарий автора:

Em7  : 330020
Em7+5 : 330230
G6   : 000023
 
 

Видео