ДДТ - Любовь, аккорды

Прокрутка
Тональность
Шрифт
100
Вступление №1: x3
|----------13----------|----------13-|   
|--8h10-11----11-10h11-|--8h10-11----|
|----------------------|-------------|
|----------------------|-------------|
|----------------------|-------------|
|----------------------|-------------|

Вступление №2:
|--10-10-10--------------------------------10----10~-|
|-----------11-11-11--------------------11----11-----|
|--------------------10-10-10-12-12-12---------------|
|-----------------------------10-10-10---------------|
|-----------------------------10-10-10---------------|
|-----------------------------10-10-10---------------|

Куплет:
1 часть:
|-------------|-------------|
|-------------|-------------|
|---10-8-7----|---10-8-7-10-|
|----------10-|-------------|
|-------------|-------------|
|-------------|-------------|

Вторая часть:
(Просто послушайте песню внимательно, чтобы понять, 
как это играть все очень легко и ритм тоже)
|-------------------------|
|-------------------------|
|--10-10-10------12-12-12-|
|--8--8--8-------10-10-10-|
|--8--8--8-------10-10-10-|
|--8--8--8-------10-10-10-|

Припев:
|------------------------|
|------------------------|
|--10--------12----------|
|--8---------10-------12-|
|--8---------10-------12-|
|--8---------10-------12-|

Припев разбавляется второй гитарой, которая играет следующее:
|----------------------------------------------|
|----------------------------------------------|
|----10-8-7----------------------8-7-----------|
|----------------------------------------------|
|----------------------------------------------|
|----------------------------------------------|

Соло:
|-----------------------------------------------------------------|
|--------------------------------3--3-6-4-3---3-------------------|
|-0-2-3--3-2-0-----0--0-2-3--3-5------------5---3-3h5-3p2p0-------|
|--------------3-0------------------------------------------5p3p5-|
|-----------------------------------------------------------------|
|-----------------------------------------------------------------|

|-------------------------------------------10--10-13-11-10----10-|
|-8-10-11-11~--11-10-8------8-8-10-11-11-13-----------------13----|
|----------------------10-7---------------------------------------|
|-----------------------------------------------------------------|
|-----------------------------------------------------------------|
|-----------------------------------------------------------------|

|---------------------------|
|-11-11h13-11p10p8-12p10h12-|
|---------------------------|
|---------------------------|
|---------------------------|
|---------------------------|

Outro: x2
|---------------------------------|
|---------------------------------|
|--10--------12-------10--8-7--12-|
|--8---------10-------8--------10-|
|--8---------10-------8--------10-|
|--8---------10-------8--------10-|
 
 

Видео