ДДТ - Это все, аккорды

Прокрутка
Тональность
Шрифт
100
    G
E||---------------------------|--------------------------|
B||---------------------------|--------------------------|
G||--------0-----------0-----|--------0-----------0-----|
D||-----0-----0-----0-----0--|-----0-----0-----0-----0--|
A||---------------------------|--------------------------|
E||---3-----------3-----------|--3-----------3-----------|

  D                          Em
E|------------------------|-------2h3p2-|---------------------|
B|-------3-----------3----|-----3-------|---------------------|
G|----2-----2-----2-----2-|---2---------|---------------------|
D|-0-----------0----------|-0-----------|-----2----------2----|
A|------------------------|-------------|---2---2-----2-----2-|
E|------------------------|-------------|-0--------0----------|

                    C
E|-------------------------|--------------------------|
B|-------------------------|--------1-----------1-----|
G|-------------------------|-----0-----0-----0-----0--|
D|-------2-----------2-----|--------------------------|
A|----2-----2-----2-----2--|--3-----------3-----------|
E|-0-----------0-----------|--------------------------|

  D                  G       (припев)
E|----------2h3p2---------||--------------------------|
B|-------3----------------||--------------------------|
G|----2------------------||-----0--0--0-----0--0--0--|
D|-0---------------------||-----0--0--0-----0--0--0--|
A|------------------------||--------------------------|
E|------------------------||--3-----------3-----------|

  D                  Em
E|-------------------------|--------------------------|
B|----3--3--3-----3--3--3--|--------------------------|
G|----2--2--2-----2--2--2--|--------------------------|
D|-0-----------0-----------|-----2--2--2-----2--2--2--|
A|-------------------------|-----2--2--2-----2--2--2--|
E|-------------------------|--0-----------0-----------|

  C       D         G
E|-------------------------|--------------------------|
B|----1--1--1-----3--3--3--|--------------------------|
G|----0--0--0-----2--2--2--|-----0--0--0-----0--0--0--|
D|-------------0-----------|-----0--0--0-----0--0--0--|
A|-3-----------------------|--------------------------|
E|-------------------------|--3-----------3-----------|

  D           C                               D (конец припева)
E|-----------------|------------------------|----------2h3p2--|
B|---3-3-3---3-3-3-|----1--1--1-----1--1--1-|-------3---------|
G|---2-2-2---2-2-2-|----0--0--0-----0--0--0-|----2------------|
D|-0-------0-------|------------------------|-0---------------|
A|-----------------|-3-----------3----------|-----------------|
E|-----------------|------------------------|-----------------|

   G
E|--------------------------|------------------------|
B|--------------------------|------------------------|
G|--------0-----------0----|-------0-----------0----|
D|-----0-----0-----0-----0-|----0-----0-----0-----0-|
A|--------------------------|------------------------|
E|---3-----------3----------|-3-----------3----------|

  D                            Em
E|------------------------|----------2p3p2-|-------------------|
B|-------3-----------3----|-------3--------|-------------------|
G|----2-----2-----2-----2-|----2-----------|-------------------|
D|-0-----------0----------|-0--------------|-------2-------2---|
A|------------------------|----------------|----2----2---2---2-|
E|------------------------|----------------|-0---------0-------|

                    C
E|------------------------|--------------------------|
B|------------------------|--------1-----------1-----|
G|------------------------|-----0-----0-----0-----0--|
D|-------2-----------2----|--------------------------|
A|----2-----2-----2-----2-|--3-----------3-----------|
E|-0-----------0----------|--------------------------|

  D                     G (припев)
E|----------2h3p2-----||-------------------------|
B|-------3------------||-------------------------|
G|----2--------------||----0--0--0-----0--0--0--|
D|-0-----------------||----0--0--0-----0--0--0--|
A|--------------------||-------------------------|
E|--------------------||-3-----------3-----------|

  D                Em
E|------------------------|-------------------------|
B|----3--3--3-----3--3--3-|-------------------------|
G|----3--2--2-----2--2--2-|-------------------------|
D|-0-----------0----------|----2--2--2-----2--2--2--|
A|------------------------|----2--2--2-----2--2--2--|
E|------------------------|-0-----------0-----------|

  C       D        G
E|------------------------|------------------------|
B|----1--1--1-----3--3--3-|------------------------|
G|----0--0--0-----2--2--2-|----0--0--0-----0--0--0-|
D|-------------0----------|----0--0--0-----0--0--0-|
A|-3----------------------|------------------------|
E|------------------------|-3-----------3----------|

  D                C           D
E|------------------------|-----------------|----------2h3p2-||
B|----3--3--3-----3--3--3-|---1-1-1---1-1-1-|-------3--------||
G|----2--2--2-----2--2--2-|---0-0-0---0-0-0-|----2-----------||
D|-0-----------0----------|-----------------|-0--------------||
A|------------------------|-3-------3-------|----------------||
E|------------------------|-----------------|----------------||
 
 
Свернуть Распечатать

Видео