ДДТ - Мертвый город. Рождество, аккорды

Прокрутка
Тональность
Шрифт
100
Intro:
  E     Am    G     C     G     C     E     Am
e|-----------------------------------------------------------|
B|-----------------------------------------------------------|
G|-----------------------------------------------------------|
D|---------2-------5-3-2-0-2-------5-3-2-0-2-----------------|
A|-0-2-3-5---------------------------------------------5---3-|
E|-------------------------------------------------0-4-------|

  E     Am    G     C     G     C     E     Am
e|-----------------------------------------------------------|
B|-----------------------------------------------------------|
G|-----------------------------------------------------------|
D|---------2-------5-3-2-0-2-------5-3-2-0-2-----------------|
A|-0-2-3-5---------------------------------------------2---0-|
E|-------------------------------------------------0-4-------|

E     Am       Dm       G      C
Не пройти мне ответом там, где пули - вопрос.
   E      Am          Dm      G     C
Где каждый взгляд - миллиметром, время - пять папирос,
      Dm       G       C
Мертвый город хоронит  свои голоса,
 E  Am         E           Am
Потерялись и бродят  между стен небеса.

Рождество наступило - в подвале темно
Сколько душ погубило напротив окно?..
Я забыл что в природе еще что-то есть
Шестого приняли роды, без шести минут шесть.

   E             Am E            Am
     А наутро выпал снег  после долгого огня,
   G              C E             Am
     Этот снег убил меня,  погасил короткий век.
   E              Am  E                  Am
     Я набрал его в ладонь,  сплюнул в белый грязь и пыль,
   G                C   E                Am
     То ли небыль, то ли быль,  то ли вечность, то ли вонь.

Intro

Этот город разбился, но не стал крестом
Павший город напился жизни перед постом
Здесь контуженые звезды новый жгут Вифлием
На пеленке березы руки, ноги не всем.

С рождеством вас, железо, повязка венцом
Медсестра мать Тереза с симпатичным лицом
Прошлой ночью, как шорох, вспоминались дни
Как вы задернули шторы, как мы были одни.

     А на утро выпал снег, после долгого огня
     Этот снег убил меня, погасил двадцатый век.
     Я набрал его в ладонь, сплюнул в белый грязь и пыль
     То ли небыль, то ли быль, то ли вечность то ли вонь.

Intro

Не пройти мне ответом там, где пули вопрос.
Где каждый взгляд - миллиметром, время - пять папирос
Мертвый город с пустыми глазами со мной.
Я стрелял холостыми, я вчера был живой.

Intro + solo:
  E     Am   G      C   G      C   E     Am
e|-------------------------------------------------------------|
B|-------------------------------------------------------------|
G|--------7-9------12-10-9-7-9-----12-10-9-7-9---------7---5---|
D|-7-9-10--------------------------------------------6---------|
A|-------------------------------------------------7-----------|
E|-------------------------------------------------------------|

  E     Am   G      C   G      C   E     Am
e|-------------------------------------------------------------|
B|-------------------------------------------------------------|
G|--------7-9------12-10-9-7-9-----12-10-9-7-9-----------------|
D|-7-9-10--------------------------------------------6-9--(7)--|
A|-------------------------------------------------7-----------|
E|-------------------------------------------------------------|

Или вообще
  E     Am   G       C  G       C  E     Am
e|-5-7-8-10-12-----15-13-12-10-12--15-13-12-10-12--0-4-10--8---|
B|-------------------------------------------------------------|
G|-------------------------------------------------------------|

  E     Am   G       C  G       C  E     Am
e|-5-7-8-10-12-----15-13-12-10-12--15-13-12-10-12--0-4-7--(5)--|
B|-------------------------------------------------------------|
G|-------------------------------------------------------------|
 
 

Видео