ДДТ - Далеко, далеко, аккорды

Прокрутка
Тональность
Шрифт
100
Intro: x4
   Am       F7+      D9
 1|----0---|----0---|------0-|--------|
 2|-------1|-1-----1|----3-3-|--------|
 3|--2---2-|--------|--2---2-|--------| 
 4|--------|3-3---3-|4-----4-|--------|
 5|0-------|--------|--------|--------|
 6|--------|--------|--------|--------| 
 
   Am     F7+   D9
   Далеко, далеко,
   Am     F7+    D9 G G4 G
   В беззаботные дни,
   Am     F7+      D9
   Я смотрю, как легко
   Am     F7+  D9 G G4 G
   Исчезают они.
 
   Em      D9  G G4 G
   Слышу я тишину,
   Em      D9  G G4 G
   Что молчит в тишине,
   Em      D9  G G4 G
   Вижу мир да войну,
   Em      D9      F7+
   Грею ночь на огне.
 
Припев:
       Am  D9 D4 D9 G C Em
       Я - дорога!
       Am  D9 D4 D9 G C Em
       Дорога!
       Am  D9 D4 D9 G C Em
       Да-да-дорога!
       Am  D9 D4 D9 G C Em
       Дорога!
 
   Am     F7+   D9
   Далеко, далеко,
   Am     F7+    D9 G G4 G
   Где ни зла, ни беды,
   Am     F7+   D9
   Ты дала мне воды,
   Am     F7+    D9 G G4 G
   Я нырнул глубоко.

   Em      D9  G G4 G
   Женовала луна,
   Em      D9  G G4 G
   Целовавшая день,
   Em      D9  G G4 G
   Ты вдали так видна,
   Em      D9      F7+
   Рядом ветер да тень.
 
Припев:
       Am  D9 D4 D9 G C Em
       Я - дорога!
       Am  D9 D4 D9 G C Em
       Дорога!
       Am  D9 D4 D9 G C Em
       Да-да-дорога!
       Am  D9 D4 D9 G C Em
       Дорога!
 
   Em     D9     G G4 G
   Шли вдвоем по реке,
   Em     D9  G G4 G
   Собирая лады.
   Em     D9     G G4 G
   Но его лишь следы
   Em     D9     F7+
   Вижу я на песке.

Припев:
       Am  D9 D4 D9 G C Em
       Я - дорога!
       Am  D9 D4 D9 G C Em
       Дорога!
       Am  D9 D4 D9 G C Em
       Да-да-дорога!
       Am  D9 D4 D9 G C Em
       Дорога! 
       Am     F7+   D9
       мДалеко, далеко...

Комментарий автора:

   Am       F7+      D9       G   G4 G
 1|----0---|----0---|------0-|3-3-----|
 2|-------1|-1-----1|----3---|0-0-1-0-|
 3|--2---2-|--------|--2-----|0-0-----|    для второй и четвертой
 4|--------|3-3---3-|4-------|0-0-----|    строчек куплета
 5|0-------|--------|--------|2-2-----|
 6|--------|--------|--------|3-3-----|
 
    F7+
 1|-0------|
 2|-1------|   для окончания куплета
 3|-2------|
 4|-3------|
 5|-0------|
 6|-0------|
 
   Am       D9  D4   D9  G    C   Em
 1|0-------|0---3---|0---3---|0---0---|
 2|1-------|3---3---|3---0---|1---0---|    для припева
 3|2-------|2---2---|2---0---|0---0---|
 4|2-------|0---0---|0---0---|2---2---|
 5|0-------|0---0---|0---2---|3---2---|
 6|0-------|--------|----3---|0---0---|
 
 
 intro (12-струн.)
 1|-------^-|
 2|-----^---|
 3|---^-----|
 4|---------|
 5|-^-------|
 6|---------|
 
 
Свернуть Распечатать

Видео