ДДТ - Осенняя, аккорды

Прокрутка
Тональность
Шрифт
100
3|------2-------0-------1-------2-------
4|----3---3---0---0---2---2---2---2-----
5|--------------------------0-----------
6|--1-------3-------0-------------------

    F       G       E        Am 
Небеса на коне на осеннем параде
Месят тесто из тех, кто представлен к награде,
    F        G         E 
1|------------------------0--
2|---------------------------
3|------2-------0-------1----
4|----3---3---0---0---2------
5|---------------------------
6|--1-------3-------0--------
А по ящику врут о войне...

Я живу на весах в это качество года;
Моя песня конечно дождливого рода,
Моя песня не спета
 1|--10--8-7-8---|  И не одета

Моя песня - ответ письмам Анны и Лизы;
Брызги ветра весят на промокших корнизах
Собрала их губами весна
 1|--10--8-7-8---|  И исчезла она

Проигрыш:
3|----2-2-2---0-0-0---1-1-1---2-2-2--
4|----3-3-3---0-0-0---2-2-2---2-2-2--
5|--------------------------0--------  (х4)
6|--1-------3-------0----------------

Я с бедой на плечах доползу до дороги,
Умереть - ничего, если выпить немного,
Но мешает уйти от тебя
Наше "Я"

Где опасности бред, там живые могилы;
Нас за верность их лет поднимают на вилы.
Этой осенью платим за свет.

Пляшем на виражах; повороты веками,
И никому нет конца, даже тем, кто не с нами.
Наша песня с тобой в облаках.

1|--5-5-1-1---------------------------------
2|----------3-3-1-1-0-0-----3-3-5-5---------
3|----------------------1-1-----------------
И пока ничего, ничего не случилось

1|--5-5-1-1---------------------------------
2|----------3-3-1-1-0-0-----3-3-5-5---------
3|----------------------1-1-----------------
Я вчера еще помнил, что жизнь мне приснилась

1|--5-5-1-1-------------------------5-8---6-5-6---
2|----------3-3-1-1-0-0-----3-3-5-5---------------
3|----------------------1-1-----------------------
Этой осенью стала она.

3|----2-2-2---0-0-0---1-1-1---2-2-2--
4|----3-3-3---0-0-0---2-2-2---2-2-2--
5|--------------------------0--------
6|--1-------3-------0----------------
И если вокруг - одно лихо,

3|----2-2-2---0-0-0---1-1-1---2-2-2--
4|----3-3-3---0-0-0---2-2-2---2-2-2--
5|--------------------------0--------
6|--1-------3-------0----------------
И если кругом - слишком тонко,

3|----2-2-2---0-0-0---1-1-1---2-2-2--
4|----3-3-3---0-0-0---2-2-2---2-2-2--
5|--------------------------0--------
6|--1-------3-------0----------------
Люби всех нас, Господи, тихо,

3|----2-2-2---0-0-0---1-1-1---2-2-2--
4|----3-3-3---0-0-0---2-2-2---2-2-2--
5|--------------------------0--------
6|--1-------3-------0----------------
Люби всех нас, Господи, громко..

Иногда наша жизнь зарастает цветами.
Это значит, мой друг, ОН прошел между нами,
Но увидеть ЕГО не легко...

1|--5-5-1-1-----------------------------
2|----------3-3-1-1-0-0-----3-3-5-5-----
3|----------------------1-1-------------
И если вокруг - одно лихо

1|--5-5-1-1-----------------------------
2|----------3-3-1-1-0-0-----3-3-5-5-----
3|----------------------1-1-------------
И привычное нам - слишком тонко,
Люби все нас, Господи, тихо,
Люби всех нас, Господи, громко.

Люби всех нас, Господи, тихо,
Люби всех нас, Господи...

1|--10---8-7-8---10---8-7-8---|
 
 

Видео