ДДТ - Подарок, аккорды

Прокрутка
Тональность
Шрифт
100
 Intro:
 E |----------------------------------------------------|
 B |----------------------------------------------------|
 G |----------------------------------------------------| - 4 раза
 D |---------3--2---0---------3--2-0--------------------|
 A |-----0+2-----------0+2------------------------------|
 E |-3---------------3----------------------------------|

 E |-------------------------------|
 B |-------------------------------|
 G |-------------------------------| (Припев)
 D |-2----7--5----7--2----7--5-----|
 A |-2----7--5----7--2----7--5-----|
 E |-0----5--3----5--0----5--3-----|

Em A(V) G(III) A(V) Em 

 G 
Я принёс тебе подарок - мокрый след на ржавой крыше,
Крик, который не услышишь, взгляд усталый на ладони,
 Em 
Ветер, на котором кони мчаться в небо перестали,
 G 
Руки, что их не достали, утро с ночью на перроне.

   Em                     G 
   Я, привет радость, это я!
   Em    G 
   Это я...

Я принёс тебе подарок - стремена дороги пыльной
Переломанные крылья, утро в треснувшем стакане,
Дождь, засохший на экране, праздник, пахнущий полынью,
Юность павшую да старость, и усталось и усталость

   Я...
   Это я...

Я принёс тебе подарок - расстояние между нами,
Счастье в запылённой раме, похоронку от иллюзий,
Залпы брошенных орудий, три войны да полмедали,
Руки, что уже не ждали, встречи с той, что вечно любит

   Я, привет радость, это я!
   Это я! Открой, это я
   Мань, открой, это же я!
   Радость привет, это же я!
 
 

Видео