ДДТ - Ветер, аккорды

Прокрутка
Тональность
Шрифт
100
Intro:
  Em     C    Am        D 
 E|-0-----------0---------2-3-2-0-|
 B|-0-----------1---------3-------|
 G|-0-----------2--2-2-0--2------- x4
 D|-2--2-0-0-2--2-----------------/
 A|-2-----3-----0-----------------|
 E|-------------0-----------------|

  Em     C       Am      D       Em      C       Am     D 
 E|------------------------------------------------------2-3-2-0|
 B|0----0-1-----1-1-----1-3-----3-0-----0-1-----1-1----1-3------|
 G|---0-------0-------2-------2-------0-------0-------2---------|
 D|-2-------2-------2-------0-------2-------2-------2-----------|
 A|-------------------------------------------------------------|
 E|-------------------------------------------------------------|

       Em        C          Am        D    Em C Am D 
       О-пре-крас-ная даль погло-тив-ша-я небо
       Em        C          Am        D    Em C Am D 
       Облака как к любимой прижались к земле
       Em        C          Am        D    Em C Am D 
       Где ты и я под простой да не скошенной крышей
       Em  C    Am      D    Em C Am D 
       Ищем друг в друге тепло, что, что

Припев:
    D        G   D            Em  C 
    Что нам Ветер да на это ответит,
               G   D              Em C D 
    Несущийся мимо, да сломавший крыло.
                   G   D               Em C 
    И, упав между нами, так недолго любимых,
                    G  D  (стоп)   D (проводим по струнам)
    Разбил он объятья    как простое стекло.

  Em     C    Am        D 
 E|-0-----------0---------2-3-2-0-|
 B|-0-----------1---------3-------|
 G|-0-----------2--2-2-0--2------- x2
 D|-2--2-0-0-2--2-----------------/ 
 A|-2-----3-----0-----------------| 
 E|-------------0-----------------|

  Em     C       Am      D       Em      C       Am     D 
 E|------------------------------------------------------2-3-2-0|
 B|0----0-1-----1-1-----1-3-----3-0-----0-1-----1-1----1-3------|
 G|---0-------0-------2-------2-------0-------0-------2---------|
 D|-2-------2-------2-------0-------2-------2-------2-----------|
 A|-------------------------------------------------------------|
 E|-------------------------------------------------------------|

       Em        C          Am        D    Em C Am D 
       Мы стояли на прошлом, мы ждали начала,
       Em        C          Am        D    Em C Am D 
       Прижимаясь к стене, где исчезли они.
       Em        C          Am        D    Em C Am D 
       Где еще одну жизнь одна смерть обвенчала
       Em        C          Am        D    Em C Am D 
       Парой вспышек огня да в эти смутные дни. Что, что

Припев:
    D        G   D            Em  C 
    Что нам Ветер да на это ответит,
               G   D              Em C D 
    Несущийся мимо, да сломавший крыло.
                   G   D               Em C 
    И, упав между нами, так недолго любимых,
                    G  D  (стоп)   D (проводим по струнам)
    Разбил он объятья    как простое стекло.

Outro:
  Em     C    Am        D 
 E|-0-----------0---------2-3-2-0-|
 B|-0-----------1---------3-------|
 G|-0-----------2--2-2-0--2-------|
 D|-2--2-0-0-2--2-----------------/
 A|-2-----3-----0-----------------|
 E|-------------0-----------------|

  Em     C       Am      D       Em      C       Am     D 
 E|------------------------------------------------------2-3-2-0|
 B|0----0-1-----1-1-----1-3-----3-0-----0-1-----1-1----1-3------|
 G|---0-------0-------2-------2-------0-------0-------2---------|
 D|-2-------2-------2-------0-------2-------2-------2-----------|
 A|-------------------------------------------------------------|
 E|-------------------------------------------------------------|
 
 

Видео