ДДТ - На небе вороны, аккорды

Прокрутка
Тональность
Шрифт
100
  Em      C       A7        F#m6       
1)На небе вороны, под небом монахи,
Em        C      A7       F#m6
И я между ними в расшитой рубахе,
C          C      A7      F#m6
Лежу на просторе, легка и пригожа,
Em       C          A7     F#m6
И солнце взрослее и ветер моложе.

  Em      C       A7        F#m6       
2)Меня отпевали в громадине храма,
  Em      C       A7        F#m6       
Была я невеста, прекрасная дама,
C          C      A7      F#m6
Душа моя рядом стояла и пела,
  Em      C       A7        F#m6       
Но люди, не веря, смотрели на тело.

  Em      C       A7        F#m6       
3)Судьба и молитва менялись местами,
  Em      C       A7        F#m6       
Молчал мой любимый и крестное знамя,
C          C      A7      F#m6
Лицо его светом едва освещало,
  Em      C       A7        F#m6       
Простила его, я ему все прощала.

  Em      C       A7        F#m6       
4)Весна задрожав от печального звона,
  Em      C       A7        F#m6       
Смахнула три капли на лики иконы,
C          C      A7      F#m6
Что мирно покоилась между руками,
  Em      C       A7     F#m6       
Ее целовало веселое пламя.

  Em      C       A7        F#m6       
5)Свеча догорела, упало кадило,
  Em      C       A7        F#m6       
Земля застонав, превращалась в могилу,
C          C      A7      F#m6
Я бросилась в небо за легкой синицей,
  Em      C       A7        F#m6       
Теперь я на воле, я белая птица.

  Em      C       A7        F#m6       
6)Взлетев на прощанье, кружась над родными,
  Em      C       A7        F#m6       
Смеялась я, горе их не понимая,
C          C      A7      F#m6
Мы встретимся вскоре, но будем иными,
  Em      C       A7        F#m6       
Есть вечная воля, зовет меня стая.

Комментарий автора:

Этим перебором играть первые два куплета:
      Em          C           Am7         F#m6       
1|------------------------------------------------|
2|------------------------------------------------|
3|---------0-----------0-----------0-----------0--|
4|-2-----2-----2-----2-----2-----1-----1----------|
5|---3-----------0--------------------------------|
6|---0-----------------------------------2---------|

Этим перебором до конца песни (3 - 6)
      Em          C           Am7         F#m6       
1|--------------------------------------------------|
2|-----0--0--0-----1--1--1-----1--1--1-----0--0--0--|
3|-----0--0--0-----0--0--0-----0--0--0-----0--0--0--|
4|-----2--2--2-----2--2--2-----2--2--2-----1--1--1--|
5|--3-----------0-----------------------------------|
6|--0-----------------------------------2-----------|
 
 
Свернуть Распечатать

Видео