ДДТ - Ветер, аккорды

Прокрутка
Тональность
Шрифт
100
Вступление: x2
  Em         C          Am        D
1|------0---------0----------0----------2^3^2-------- 
2|------0---------1----------1----------------3------  
3|----0---0-----0---0------2---2-----3----------2----  
4|---------------------------------------------------   
5|--2---------3----------0---------0-----------------    
6|---------------------------------------------------  

Куплет:
  Em          C         Am       D
1|------0---------0----------0---------3-------------  
2|------0---------1----------1---------2-------------  
3|----0---0-----0---0------2---2-----3---3-----------  
4|---------------------------------------------------  
5|--2---------3----------0---------0-----------------  
6|---------------------------------------------------  
     О прекрасная    даль,     поглотившая 

  Em           C          Am        D
1|------0---------0----------0----------2^3^2--------   
2|------0---------1----------1----------------3------   
3|----0---0-----0---0------2---2-----3----------2----   
4|---------------------------------------------------   
5|--2---------3----------0---------0-----------------   
6|---------------------------------------------------   
    небо

    Em          C          Am        D
1|------0---------0----------0---------3-------------   
2|------0---------1----------1---------2-------------   
3|----0---0-----0---0------2---2-----3---3-----------   
4|---------------------------------------------------   
5|--2---------3----------0---------0-----------------   
6|---------------------------------------------------   
     Облака, как к любимой, прижались к

  Em           C          Am        D
1|------0---------0----------0----------2^3^2--------   
2|------0---------1----------1----------------3------   
3|----0---0-----0---0------2---2-----3----------2----   
4|---------------------------------------------------   
5|--2---------3----------0---------0-----------------   
6|---------------------------------------------------   
   земле

  Em           C          Am        D
1|------0---------0----------0---------3-------------   
2|------0---------1----------1---------2-------------   
3|----0---0-----0---0------2---2-----3---3-----------   
4|---------------------------------------------------   
5|--2---------3----------0---------0-----------------   
6|---------------------------------------------------   
Где ты и я под простой да нескошенной кр- 

  Em           C          Am        D
1|------0---------0----------0----------2^3^2--------   
2|------0---------1----------1----------------3------   
3|----0---0-----0---0------2---2-----3----------2----   
4|---------------------------------------------------   
5|--2---------3----------0---------0-----------------   
6|---------------------------------------------------   
   -ышей    

  Em         C          Am        D
1|------0---------0----------0---------3-------------   
2|------0---------1----------1---------2-------------   
3|----0---0-----0---0------2---2-----3---3-----------   
4|---------------------------------------------------   
5|--2---------3----------0---------0-----------------   
6|---------------------------------------------------   
    Ищем                   друг в друг

 Em           C          Am        D
1|------0---------0----------0---------3-------------   
2|------0---------1----------1---------2-------------   
3|----0---0-----0---0------2---2-----3---3-----------   
4|---------------------------------------------------   
5|--2---------3----------0---------0-----------------   
6|---------------------------------------------------   
    тепло.   Что, что,             Что нам

Припев:
  G                    D
1|------3---------3----------2---------2-------------   
2|------3---------3----------3---------3-------------   
3|----0---0-----0---0------2---2-----2---2-----------   
4|---------------------------------------------------   
5|--2---------2----------0---------0-----------------   
6|---------------------------------------------------   
   Ве-е-ете-е-ер          Да на это от

  Em                               
1|------0---------0-----------------------0----------   
2|------0---------0-----------------------1----------  
3|----0---0-----0---0------0----0-------0---0--------   
4|-----------------------2----2----------------------   
5|--2---------2----------------------3---------------   
6|---------------------------------------------------   
 -ве-е-етит                          Несущейс

   Am                      D
1|------0---------0----------2---------2-------------   
2|------1---------1----------3---------3-------------   
3|----2---2-----2---2------2---2-----2---2-----------   
4|---------------------------------------------------   
5|--0---------0----------0---------0-----------------   
6|---------------------------------------------------   
  ми-и-и-мо               Да сломавший кры-

  G                       D
1|------3---------3-------------2---------2----------   
2|------3---------3-------------3---------3----------   
3|----0---0-----0---0---------2---2-----2---2--------   
4|---------------------------------------------------   
5|--2---------2-------------0---------0--------------   
6|---------------------------------------------------   
   ло-о-о                       И упав между

  G                     D
1|------3---------3----------2---------2-------------   
2|------3---------3----------3---------3-------------   
3|----0---0-----0---0------2---2-----2---2-----------   
4|---------------------------------------------------   
5|--2---------2----------0---------0-----------------   
6|---------------------------------------------------   
    на-а-а-ми               так недолго лю-ю

Em                                 C
1|------0---------0-----------------------0----------   
2|------0---------0-----------------------1----------   
3|----0---0-----0---0------0----0-------0---0--------   
4|-----------------------2----2----------------------   
5|--2---------2----------------------3---------------   
6|---------------------------------------------------   
    -би-имых                         Разбил он

  Am                     D
1|------0---------0-----------------2^3^2--------0---   
2|------1---------1------------3-----------3-----0---  
3|----2---2-----2---2--------2---2-----------2---0---  
4|-------------------------0-------------------------   
5|--0---------0----------------------------------2---  
6|---------------------------------------------------   
     Объя-а-а-тья              как простое стекло
 
Проигрыш: x2
  Em           C          Am        D 
1|-0-----0---------0----------0----------2^3^2--------   
2|-0-----0---------1----------1----------------3------   
3|-0---0---0-----0---0------2---2-----3----------2----   
4|----------------------------------------------------   
5|-2-----------3----------0---------0-----------------   
6|----------------------------------------------------   |

Куплет 2:
  Em          C         Am       D
1|------0---------0----------0---------3-------------  
2|------0---------1----------1---------2-------------  
3|----0---0-----0---0------2---2-----3---3-----------  
4|---------------------------------------------------  
5|--2---------3----------0---------0-----------------  
6|---------------------------------------------------  
    Мы  стояли  на  прошлом,  мы  ждали 

  Em           C          Am        D
1|------0---------0----------0----------2^3^2--------   
2|------0---------1----------1----------------3------   
3|----0---0-----0---0------2---2-----3----------2----   
4|---------------------------------------------------   
5|--2---------3----------0---------0-----------------   
6|---------------------------------------------------   
    начала,

    Em          C          Am        D
1|------0---------0----------0---------3-------------   
2|------0---------1----------1---------2-------------   
3|----0---0-----0---0------2---2-----3---3-----------   
4|---------------------------------------------------   
5|--2---------3----------0---------0-----------------   
6|---------------------------------------------------   
    Прижимаясь к стене, где исчезли 

  Em           C          Am        D
1|------0---------0----------0----------2^3^2--------   
2|------0---------1----------1----------------3------   
3|----0---0-----0---0------2---2-----3----------2----   
4|---------------------------------------------------   
5|--2---------3----------0---------0-----------------   
6|---------------------------------------------------   
   они

  Em           C          Am        D
1|------0---------0----------0---------3-------------   
2|------0---------1----------1---------2-------------   
3|----0---0-----0---0------2---2-----3---3-----------   
4|---------------------------------------------------   
5|--2---------3----------0---------0-----------------   
6|---------------------------------------------------   
 Где еще одну жизнь одна смерть об-

  Em           C          Am        D
1|------0---------0----------0----------2^3^2--------   
2|------0---------1----------1----------------3------   
3|----0---0-----0---0------2---2-----3----------2----   
4|---------------------------------------------------   
5|--2---------3----------0---------0-----------------   
6|---------------------------------------------------   
  -венчала

  Em         C          Am        D
1|------0---------0----------0---------3-------------   
2|------0---------1----------1---------2-------------   
3|----0---0-----0---0------2---2-----3---3-----------   
4|---------------------------------------------------   
5|--2---------3----------0---------0-----------------   
6|---------------------------------------------------   
  Парой вспышек огня да в эти  


 Em           C          Am        D
1|------0---------0----------0---------3-------------   
2|------0---------1----------1---------2-------------   
3|----0---0-----0---0------2---2-----3---3-----------   
4|---------------------------------------------------   
5|--2---------3----------0---------0-----------------   
6|---------------------------------------------------   
 смутные   дни.  Что, что,             Что нам

Припев:
  G                    D
1|------3---------3----------2---------2-------------   
2|------3---------3----------3---------3-------------   
3|----0---0-----0---0------2---2-----2---2-----------   
4|---------------------------------------------------   
5|--2---------2----------0---------0-----------------   
6|---------------------------------------------------   
   Ве-е-ете-е-ер          Да на это от
  Em                               
1|------0---------0-----------------------0----------   
2|------0---------0-----------------------1----------  
3|----0---0-----0---0------0----0-------0---0--------   
4|-----------------------2----2----------------------   
5|--2---------2----------------------3---------------   
6|---------------------------------------------------   
 -ве-е-етит                          Несущейс
   Am                      D
1|------0---------0----------2---------2-------------   
2|------1---------1----------3---------3-------------   
3|----2---2-----2---2------2---2-----2---2-----------   
4|---------------------------------------------------   
5|--0---------0----------0---------0-----------------   
6|---------------------------------------------------   
  ми-и-и-мо               Да сломавший кры-
  G                       D
1|------3---------3-------------2---------2----------   
2|------3---------3-------------3---------3----------   
3|----0---0-----0---0---------2---2-----2---2--------   
4|---------------------------------------------------   
5|--2---------2-------------0---------0--------------   
6|---------------------------------------------------   
   ло-о-о                       И упав между

  G                     D
1|------3---------3----------2---------2-------------   
2|------3---------3----------3---------3-------------   
3|----0---0-----0---0------2---2-----2---2-----------   
4|---------------------------------------------------   
5|--2---------2----------0---------0-----------------   
6|---------------------------------------------------   
    на-а-а-ми               так недолго лю-ю
Em                                 C
1|------0---------0-----------------------0----------   
2|------0---------0-----------------------1----------   
3|----0---0-----0---0------0----0-------0---0--------   
4|-----------------------2----2----------------------   
5|--2---------2----------------------3---------------   
6|---------------------------------------------------   
    -би-имых                         Разбил он

  Am                     D
1|------0---------0-----------------2^3^2--------0---   
2|------1---------1------------3-----------3-----0---  
3|----2---2-----2---2--------2---2-----------2---0---  
4|-------------------------0-------------------------   
5|--0---------0----------------------------------2---  
6|---------------------------------------------------   
     Объя-а-а-тья              как простое стекло
 
Проигрыш: x2
  Em           C          Am        D 
1|-0-----0---------0----------0----------2^3^2--------   
2|-0-----0---------1----------1----------------3------   
3|-0---0---0-----0---0------2---2-----3----------2----   
4|----------------------------------------------------   
5|-2-----------3----------0---------0-----------------   
6|----------------------------------------------------   

Припев боем:
      Am  D    G     D       Em      
     Что нам ветер, да на это ответит,
       Am           D                G 
     Несущийся мимо, да сломавший крыло,
         D         G    D            Em 
     И, упав между нами, так недолго любимых,
      C   Am           D                Em
     Разбил он объятья, как простое стекло.
 
 
Свернуть Распечатать

Видео