ДДТ - На небе вороны, аккорды

Прокрутка
Тональность
Шрифт
100
(не пугайся, дорогой друг, так вот получилось)            
    1     1          2      3  
На небе вороны, под небом монахи, 
  1        1         2      3
И я между ними в расшитой рубахе, 
  1          1       2       3
Лежу на просторе, легка и пригожа, 
   1          1      2        3       1    123 1123        
И солнце взрослее          и ветер моложе. 

Меня отпевали в громадине храма, 
Была я невеста, прекрасная дама, 
Душа моя рядом стояла и пела, 
Но люди, не веря, смотрели на тело. 

Судьба и молитва менялись местами, 
Молчал мой любимый и крестное знамя, 
Лицо его светом едва освещало, 
Прости, я ему все прощала. 

Весна задрожав от печального звона, 
Смахнула две капли на лики иконы, 
Что мирно покоилась между руками, 
И я целовала веселое пламя. 

Свеча догорела, упало кадило, 
Земля застонав, превращалась в могилу, 
Я бросилась в реку за легкой синицей, 
Теперь я на воле, я Белая Птица. 

Взлетев на прошанье, кружась над родными, 
Смеялась я, горе их не понимая, 
Мы встретимся вскоре, но будем иными, 
Есть вечная воля, зовет меня стая.

(В тексте могут присутствовать некоторые ошибки) 

Переборы:

1|---------|---------|---------|---------| 
2|---------|---------|---------|---------| 
3|-----О---|-----О---|-----2---|-----2---| 
4|---2---2-|---2---2-|---2---2-|---1---1-| 
5|---------|-3-------|-О-------|-2-------| 
6|-О-------|---------|---------|---------| 
  Начиная с "Весна задрожав..." 
1|---------|---------|---------|---------| 
2|---------|---------|---------|---------| 
3|---О-О-О-|---О-О-О-|---2-2-2-|---2-2-2-| 
4|---2-2-2-|---2-2-2-|---2-2-2-|---1-1-1-| 
5|---------|-3-------|-О-------|-2-------| 
6|-О-------|---------|---------|---------| 
 
Аккорды:

       1                 2                  3
1|---|---|---|-   1|---|---|---|-    1|---|---|---|-   
2|---|---|---|-   2|---|---|---|-    2|---|---|---|-
3|---|---|---|-   3|---|-x-|---|-    3|---|-x-|---|-
4|---|-x-|---|-   4|---|-x-|---|-    4|-x-|---|---|-
5|---|---|-x-|-   5|---|---|---|-    5|---|-x-|---|-
6|---|---|---|-   6|---|---|---|-    6|---|---|---|-