ДДТ - Новое сердце, аккорды

Прокрутка
Тональность
Шрифт
100
Вступление:
E-----------------------------------------------------------
B------2-3-2-3-0-----0-1-0-1-0----0-2-0-2-0----3-3-3-2-0----
G------4-4-4-4-0-----0-0-0-0-0----0-0-0-0-0----0-0-0-0-0----
D------4-4-4-4-0-----0-0-0-0-0----2-2-2-2-2----2-2-2-2-2----
A----2------------------------------------------------------
D------------------3------------0------------0-------------- x2 

Основная часть:
E--------------------------3-----------------
B--------3--------0-------2-2-------2--------
G-------4-4------0-0-----3---3-----3-3-------
D------4---4----0---0--0----------4---4------
A----2---------------------------------------
D-------------3-----------------2------------
все время (до припева) перебором

Припев: x2 
E--------3----------------------------------
B-------2-2-------2--------2--------0-------
G------3---3-----3-3------4-4------0-0------
D----0----------4---4----4---4----0---0-----
A----------------------2--------------------
D-------------2-----------------3-----------

E--------3----------------------------------
B-------2-2-------2--------3--------0-------
G------3---3-----3-3------0-0------1-1------
D----0----------4---4----0---0----2---2-----
A-------------------------------------------
D-------------2--------3--------0-----------

После каждого припева повтор вступления.
После этого - E боем (все время вниз)
В конце - еще раз вступление.

Комментарий автора:

Текст:  
Небо звездное, метель августа,
На дороге машин конителица,
Возят засуху, а мне радостно-
Знаю точно погода изменица!

Я смотрю наверх, там где мы живем,
Так все тихо, сухо, да правильно.
Я же из тех кому нет победы днем,
Я как степь дышу сном неправедным.

Я по засухе, ведро полное
Между фар лисой, живьем пламени.
Я так мал, а вокруг все огромное,
И плевать, что ни ружья да ни знамени!

Небо звездное, метель августа,
Оглянись - расцветает пророчество.
Дело степь мое - одиночество,
Смерти нет, но всегда пожалуйста.

Припев:
Новое сердце взорвется над нами
Новая жизнь позовет за собой.
И освященный седыми богами
Я, как на праздник, пойду за тобой.

Небо звездное, руки августа,
На дороге машин метелица
Что пожнем, когда пыль рассеется
Степь красна, как чернила Фауста.

Ночь светла, как круги от времени,
Что забросил я в смерть уставшую.
Все дороги растут из семемни,
Не дошедшого, да не доспавшего...

Жду от нового века,белого
Продолжения понимания,
Что мы часть всего безоответного
Что мы ночь всего ожидания.
пойду в этот бой
 
 
Свернуть Распечатать

Видео