ДДТ - Далеко, далеко, аккорды

Прокрутка
Тональность
Шрифт
100
[проигрыш] Am Fmaj7  [*] {2 раза}

	Am	Fmaj7	 [*]
1|---------0---------0-0---------0|
2|------1---1------1----0------3--|
3|----2----------2-----------2----|
4--3-----------4------------------|
5|--0-----------------------------|

Am    Fmaj7   [*]  Am    Fmaj7 Dsus2 G5/B    
Далеко, далеко беззаботные дни	

{почти то же, что и проигрыш, но последние 2 аккорда играются так:
             Dsus2	 G5/B
1|------0-----3--3--------|
2|----3---3---3--3----3---|
3|--2---------0--0--0-----|
4|-0----------0--0--------|
5-2--2--------------------|
	   вниз  вверх

Am      Fmaj7    [*]  Am   Fmaj7 Dsus2 G5/B		
 Я смотрю как легко исчезают они
Em     Dm     G * Em       Dm     G * {с этой строчки боем}
 Слышу я тишину, что молчит в тишине
Em     Dm        G * Em       Dm    Fmaj7/E Fmaj7/C
 Вижу мир да войну, грею ночь на огне

Припев:
	Am [*2]= Am [*3]=        Am [2*]= Am [*3]=
 Я - дорога! Дорога. Да-да-дорога. Дорога

Am    Fmaj7   [*]  Am    Fmaj7 Dsus2 G5/B    
 Далеко, далеко, где не зла не беды
Am      Fmaj7    [*]  Am   Fmaj7 Dsus2 G5/B		
 Ты дала мне воды, я нырнул глубоко
Em     Dm     G * Em       Dm  G *
 Женовала луна, целовавшая день
Em     Dm        G * Em       Dm    Fmaj7/E Fmaj7/C
 Ты вдали так видна, рядом ветер да тень

Припев:
	Am [*2]= Am [*3]=        Am [2*]= Am [*3]=
 Я - дорога! Дорога. Да-да-дорога. Дорога

Am F D 
Шли вдвоем по реке
Am F D G 
Собирая лады
Am F D 
Но его лишь следы
Am F D G 
Вижу я на песке

Комментарий автора:

Fmaj7 [*] Dsus2 G5/B Fmaj7/E Fmaj7/C Am2   G *
-----------------3----------------------  -3-3-1-
-1-----3---3-----3-----1-------1------1-  -3-1---  
-2-----2---2-----------2-------2--------  -------
-3-----4---------------3-------3--------  -------
-x-----x---x-----2-----3-------3------2-  -2-2-2-
-x-----x---x-----x-----1-------x--------  -x-x-x-

[*2]=          [*3]=
[D G C Amsus2] [D G Em]
 
 
Свернуть Распечатать

Видео