ДДТ - Мертвый город, Рождество, аккорды

Прокрутка
Тональность
Шрифт
100
      F#m              D        E       A
Не пройти мне ответом там, где пули вопрос,
              F#m                 D       E        A  
Где каждый взгляд - миллиметром. Время - пять папирос.
         Bm           E         A 
Мертвый город хоронит свои голоса.
    F#m           C#              F#m
Потерялись и бродят между стен небеса.
    F#m              D   E       A
Рождество наступило, в подвале темно.
        F#m          D  E       A
Сколько душ погубило напротив окно?
    Bm                   E         A 
Я забыл, что в природе еще что-то есть.
  C#      F#m        C#               F#m
Шестого приняли роды без шести минут шесть.

Припев:
                  F#m  C#            F#m
  А наутро выпал снег после долгого огня
  E                 A  C#              F#m
  Этот снег убил меня,погасил короткий век
  E                  A   E                        A
  Я набрал его в ладонь, сплюнул в белый грязь и пыль
  C#                   F#m   C#                     F#m
  То ли небыль, то ли быль, то ли вечность, то ли вонь...

Solo:
1|----------0----------0-----------1-3-|
2|--------2----3-2-0-2---3-1-0-1-1---3v| v - vibtaro
3|----2-0------------------------------|
4|2-4----------------------------------|
5|--------0----------0-----------0-----|
6|----------0----------0---------------|

      F#m            D        E       A
Этот город разбился, но не стал крестом,
              F#m             D   E   A  
Павший город напился жизней перед постом.
         Bm           E         A 
Здесь контуженные звезды новый ждут Вифлеем,
    F#m           C#              F#m
На пеленке березы руки, ноги не всем.
    F#m              D   E       A
С рождеством вас, железо, повязки венцом.
    F#m              D   E       A
Медсестра Мать Тереза с симпатичным лицом.
    Bm                   E         A 
Прошлой ночью, как шорох, вспоминались дни
  C#      F#m        C#               F#m
Как мы задернули шторы, как мы были одни.

Припев:
                  F#m  C#            F#m
  А наутро выпал снег после долгого огня
  E                 A  C#              F#m
  Этот снег убил меня,погасил короткий век
  E                  A   E                        A
  Я набрал его в ладонь, сплюнул в белый грязь и пыль
  C#                   F#m   C#                     F#m
  То ли небыль, то ли быль, то ли вечность, то ли вонь...

Solo:
1|----------0----------0-----------1-3-|
2|--------2----3-2-0-2---3-1-0-1-1---3v| v - vibtaro
3|----2-0------------------------------|
4|2-4----------------------------------|
5|--------0----------0-----------0-----|
6|----------0----------0---------------|

      F#m              D        E       A
Не пройти мне ответом там где пули вопрос,
              F#m                 D       E        A  
Где каждый взгляд - миллиметром, время - пять папирос.
         Bm           E         A 
Мертвый город с пустыми глазами со мной.
    F#m           C#              F#m
Я стрелял холостыми, я вчера был живой...

Solo: x2
1|----------0----------0-----------1-3-|
2|--------2----3-2-0-2---3-1-0-1-1---3v| v - vibtaro
3|----2-0------------------------------|
4|2-4----------------------------------|
5|--------0----------0-----------0-----|
6|----------0----------0---------------|

Outro:
F#m C# F#m | E A C# F#m | E A E A | C# F#m C# F#m
О-О-о-о-о-о-о-о....
 
 

Видео