ДДТ - Любовь, аккорды

Прокрутка
Тональность
Шрифт
100
Вся песня играется на F и G(III)
в припеве еще добавляется Am.

Проигрыш 1 в конце каждой строчки первого куплета:
e-3---1-0----
B----------3-

1.Он прожил много лет, он прожил много зим.
Тянулись серые дни и никого рядом с ним.
Он просто пил, ел, спал, тянулись серые дни.
Тянулись серые дни, они и только они.

Здесь и затем во втором куплете вступает
ритм гитара,на каждый 
поставленный аккорд следует ритм:
удар сверху-вниз,шестнадцатая пауза,
снизу-верх и сразу снова вниз с 
одновременным гашением стун ладонью.
Между аккордами четвертная пауза.

F  G  F  G
 
        F                   G          F  G 
2.Небо, улицы, люди, все в серой золе
    F                  G             F  G
Одиночество стынет на пыльном столе
       F                G            F  G  
Он петляет петлей от окна до окна
      F               G           F     G
Из которых уже не видна не видна    а-она-а

Припев:
   F  G  (проигрыш 1) Am F
Любовь,            любовь!
   Dsus2 G         F  G 
Любовь, о-о-о-о, любовь!

3.Старый город зевая поднялся с земли о-о-о-о
Он стряхнул с себя мусор, разогнал корабли о-о-о-о
Засадил голый Невский зеленой травой ой-ой-ой
Александрийский столб покрылся как мечтами листвой о-о-о-о
          F                  G 
4.Медный Петр в увольнении, до сих пор нет!?
            F                        G 
Пошел в разнос говорят, ведь конь стоял столько лет
       F                     G 	
Все дома вверх ногами, все сходит с ума 
            F            G          F     G 
Вон там вдали, вон за Невой- она, ОНА-а-а-а

   F G   (проигрыш1) Am F
Любовь,             любовь.
   Dsus2 G (проигрыш1) F G
Любовь,             любо-о-овь.

Соло
e-----------------------------------
B-----------------------------------
G-----------1-----------------------
D---1/3-(3)---4--3-1---------1/3----
A--4------------------4-4---4-------
E-----------------------------------

e----------------------------------------------
B----------------------------------------------
G------0--0-3-1--0-----------------------------
D--1-3-------------3--1-1--3/5-3--3h5p3-1h3p1--
A----------------------------------------------
E----------------------------------------------

e------------------------------------
B------------1-----------------------
G-----2-(2)----3--2-0---------0-2----
D--3/5-----------------3-3--3--------
A------------------------------------
E------------------------------------

e------------------------------------------
B------0--0-3-1--0-------------------------
G--0-2-------------2--0-0------------------
D-------------------------7/5-7p5h7-5h7p5--
A------------------------------------------
E------------------------------------------

   F  G        Am   F
Любовь, о-о-о-о любовь.
   Dsus2 G      F   Am  
Любовь, о-о-о-о любовь.
   F  G         Am   F
Любо-о-о-о-вь, любовь!
   Dsus2 G       F   Am
Любовь, о-о-о-о любовь.

Coda: здесь в местах расстановки аккордов один раз
плавно большим пальцем проводить сверху-вниз 
по всем струнам, КРОМЕ случая условно обозначенного
G1 - это обычный  баррешный G, у которого не играется
1 струна. Условное обозначение F1 расшифровывается так:
во взятом аккорде F играется первая струна(1 лад), затем
указательный палец зажимающий барре приподнимается
и играется первая открытая струна, т.е.

e----1--0--

       F       
Он прожил много лет 
       G              F  F1  G1
Он прожил много зим
          F
Тянулись серые дни
       G              F  F1  G1
И никого рядом с ним 
 
 
Свернуть Распечатать

Видео