ДДТ - Свобода, аккорды

Прокрутка
Тональность
Шрифт
100
Intro:
1|-------0--------------------------------------------|
2|-------1------------3----------1-----------0^1^0----|
3|-----2----2-------2---2------2---2-------0-------0--|
4|----3----------3------------------------------------|
5|---0------------------------------------------------|
6|---------------------------3------------------------|
 
Am      D *
Я еду к тебе
C            E
Это странное место
Am      D *
Туман на болоте
C            E
Без цвета и дна
Am      D *
Я твой вечных жених,
C            E
Золотая невеста
Am      D *
Лижут мысли, как мухи,
C         E
Стекла окна
 
Am      D *
Зима на спине
C            E
Я не стар и не молод
Am      D *
Ночь похожа на лифт
C            E
В котором умер поэт
Am      D *
Я по уши сыт,
C            E
Да разбудил меня голод
Am      D *
Руки чувствуют пульс
C            E
Я зеваю на свет
 
Припев:
         Am      D **          C             E
1|------------------------------------------------|
2|-------1---------3---------1-------------0------|
3|-------2---------2---------3----0--------1------|
4|-----2---2-----0---0-----2---2---------2---2----|
5|--0--------------------3------------------------|
6|-2-----------------------0----------------------|
 Мама,            разбуди меня вечером
 Мама,            чтоб я ночь не проспал
 Мама,            я уйду как намечено
 Мама,            мама как я устал
 
Am      D *
Гроза по глазам
C            E
Напротив морщинами
Am      D *
Скребет по стеклу
C         E
Седая рука
Am      D *
Мимо павших идей
C            E
Проплывают причинами
Am      D *
В тумане чуть видимо
C         E
Ветви века.
 
Am      D *
Растет за окном
C            E
Последняя станция
Am      D *
Здесь отпевают верхний этаж
C            E
Здравствуй, любовь,
Am      D *
Получи информацию
C            E
Да не промахнись
Am      D * C  E
И сотри макияж

Припев:
         Am      D **          C             E
1|------------------------------------------------|
2|-------1---------3---------1-------------0------|
3|-------2---------2---------3----0--------1------|
4|-----2---2-----0---0-----2---2---------2---2----|
5|--0--------------------3------------------------|
6|-2-----------------------0----------------------|
 Мама,            разбуди меня вечером
 Мама,            чтоб я ночь не проспал
 Мама,            я уйду как намечено
 Мама,            мама как я устал

[боем] 
   Am  D **  C  E
Свобооооооооооода 

Комментарий автора:

D * (003210)
D ** (200230)
 
 
Свернуть Распечатать

Видео