ДДТ - Потолок, аккорды

Прокрутка
Тональность
Шрифт
100
Вступление и припев:

Гитара 1:
2-----1------2-----1------2-----1------2-----1------2-----4-
2-----2------2-----2------2-----2------2-----2------2-----2-
1-----1------1-----1------1-----1------1-----1------1-----3-
------------------------------------------------------------
------------------------------------------------------------
------------------------------------------------------------

----2-----1
----2-----2
----3-----3 x3 
-----------
-----------
-----------

2-----1------2-----1------2-----1------1-
2-----2------2-----2------2-----2------2-
1-----1------1-----1------1-----1--------
-----------------------------------------
---------------------------------------4-
-----------------------------------------

Гитара 2: (Закольцовано)
4-44-44-4-44-44-6-66-66-6-66-66-
6-66-66-4-44-44-6-66-66-7-77-77-
6-66-66-5-55-55-6-66-66-6-66-66-
--------------------------------
--------------------------------
--------------------------------
 
 

Видео