ДДТ - Фонограмщик, аккорды

Прокрутка
Тональность
Шрифт
100
Intro:
    A5            C5      D5        A5         C5       D5
e|------------------------------------------------------------
B|------------------------------------------------------------
G|------------------------------------------------------------
D|----7---5---2---5---7----7--------7---5---2---5---7---7----- x4
A|-0-----------------------0--------0-------------------0-----
E|-----------------------------3----------------------------3-
 
Bass Part:

Riff A:
g|-------------------------
D|------------------------- x4
A|-------------------------
E|-5--5---3----5--5--5---3-

Bass Part:

Verse:
e|------------------------------------------------------------------------------------
B|------------------------------------------------------------------------------------
G|----------------------------------0-2--5--2-----------------------------------------
D|------------------------------------------------------------------------------------
A|---------------------------------------3-3-2--3--3--3--3--0--3--3--2--3--3--3--3--0-
E|-5-5-3--5-5-5-3--5-5--3--5-5-5--3---------------------------------------------------
Он разевает свой рот как карась на песке. Он на сцене а в глазах по голубой тоске.
 
e|----------------------------------------------------------------------------------------------
B|----------------------------------------------------------------------------------------------
G|-----------------------------------0---2---5----2---------------------------------------------
D|--------------------------------------------3--3--2---3--3--3--3---0-3--3--2---3--3--3--3---0-
A|-5-5-3--5-5-5--3-5-5--3--5-5-5--3-------------------------------------------------------------
E|----------------------------------------------------------------------------------------------
А в глазах по тоске по куску короче в них  Извивается и скачет всенародной жених          
                    
Pre-Chorus:
     A5 
e|---------------------------------
B|---------------------------------
G|-10/11--11/12--10/11--12/11/10/9-
D|---------------------------------
A|---------------------------------
E|---------------------------------
   Главное это  знойная страсть... 
 
Chorus:
e|-----------------------------------------------------------------------
B|-----------------------------------------------------------------------
G|----------------------0--2--7--9--7-------------------------0--2--7--2-
D|--2---2--1--0---------------------------2---2--1--0--------------------
A|--2--------------3------------------------2-----------3----------------
E|--0----------------3----------------------0---------------3------------
 
Он разевает свой рот как карась на песке
Он на сцене а в глазах по голубой тоске
А в глазах по тоске по куску короче в них
Извивается и скачет всенародный жених
 
Главное это знойная страсть 
Шаг влево шаг вправо лишь бы не упасть 
Главное поза секс манера
И ты будешь пророком героем примером
Фонограмщик 
 
Instrumental = Intro:
    A5            C5      D5        A5         C5       D5
e|------------------------------------------------------------
B|------------------------------------------------------------
G|------------------------------------------------------------
D|----7---5---2---5---7----7--------7---5---2---5---7---7----- x4
A|-0-----------------------0--------0-------------------0-----
E|-----------------------------3----------------------------3-
 
Bass Part:

Riff A:
g|-------------------------
D|------------------------- x4
A|-------------------------
E|-5--5---3----5--5--5---3-
 
Verse 2:
e|------------------------------------------------------------------------------------
B|------------------------------------------------------------------------------------
G|----------------------------------0-2--5--2-----------------------------------------
D|------------------------------------------------------------------------------------
A|---------------------------------------3-3-2--3--3--3--3--0--3--3--2--3--3--3--3--0-
E|-5-5-3--5-5-5-3--5-5--3--5-5-5--3---------------------------------------------------
Он ангел он демон он такой заводной Но вместо крыльев фанера гремит за спиной
 
e|----------------------------------------------------------------------------------------------
B|----------------------------------------------------------------------------------------------
G|-----------------------------------0---2---5----2---------------------------------------------
D|--------------------------------------------3--3--2---3--3--3--3---0-3--3--2---3--3--3--3---0-
A|-5-5-3--5-5-5--3-5-5--3--5-5-5--3-------------------------------------------------------------
E|----------------------------------------------------------------------------------------------
Опереточный пахарь надушенный член Он ждет для страны больших перемен        

e|------------------------------------------------------------------------------------
B|------------------------------------------------------------------------------------
G|----------------------------------0-2--5--2-----------------------------------------
D|------------------------------------------------------------------------------------
A|---------------------------------------3-3-2--3--3--3--3--0--3--3--2--3--3--3--3--0-
E|-5-5-3--5-5-5-3--5-5--3--5-5-5--3---------------------------------------------------
Главное вовремя вильнуть бедром Будь ты на трибуне хоть помойным ведром
 
e|----------------------------------------------------------------------------------------------
B|----------------------------------------------------------------------------------------------
G|-----------------------------------0---2---5----2---------------------------------------------
D|--------------------------------------------3--3--2---3--3--3--3---0-3--3--2---3--3--3--3---0-
A|-5-5-3--5-5-5--3-5-5--3--5-5-5--3-------------------------------------------------------------
E|----------------------------------------------------------------------------------------------
И не важно что петь важней кому дать У него никогда не скрипит кровать

N/С
Фонограмщик
N/С
Я включил телевизор посмотреть рок-н-ролл а там фонограмщик

3|-0--2--7--2
Я спустил с туалета над горшком прикол фонограмщик

3|-0--2--7--2
Мне приснился страшный сон что наш президент фонограмщик

3|-0--2--7--2
Что наш главный герой кормилец и мент фонограмщик
3|-0--2--9--2.
 
Em (6)-(3)-(12)-(3)
Em (6)-(3)-(12)-(3)
G (6)-(3)-(12)-(3)
A (6)-(3)-(12)-(3)
 
Chorus:
e|-----------------------------------------------------------------------
B|-----------------------------------------------------------------------
G|----------------------0--2--7--9--7-------------------------0--2--7--2-
D|--2---2--1--0---------------------------2---2--1--0--------------------
A|--2--------------3------------------------2-----------3----------------
E|--0----------------3----------------------0---------------3------------

А знаменитый продюсер столичный бандит
Брюзжит ты не качаешь нужен новый хит
Ты сел про Сашу бананы Любовь Анастасию
Америку Машу Олю Катю Наташу
А теперь давай про эту Ну как ее ну вот ну 
А вспомнил про Россию!
 
Фонограмщик
Фонограаа...
 
 

Видео