ДДТ - Метель, аккорды

Прокрутка
Тональность
Шрифт
100
Вступление: x2 
               Em               C                 G                 D
1||----------0--------------0---------------1-----------------2h3h2------|
2||--------0--0-----------1----1---------0-----------------3----------3--|
3||------0---------------0---------0---0------------------2--------------|
4||----2-----------------------2------------------------0----------------|
5||-------------------2—3-----------3-------------0-2-3------------------|
6||--0---------------------------------3-------3-------------------------|

              Em            C                   G                D
1||----------0-------------0---------------------1--------------2h3h2------|
2||--------0--0---------1-----0---0----------0---0----------3---------3----|
3||------0-------------0---------------------0-------0------2--------------|
4||----2----------------------5---4---4/9----------------0-----------------|
5||--------------2--3------------------------------------------------------|
6||--0---------------------------------------------------3-----------------|

1ый куплет:
                Ко-ро-но-ва-на лу-ной
               Em               C                 G                 D
1||----------0--------------0---------------1-----------------2h3h2------|
2||--------0--0-----------1----1---------0-----------------3----------3--|
3||------0---------------0---------0---0------------------2--------------|
4||----2-----------------------2------------------------0----------------|
5||-------------------2—3-----------3-------------0-2-3------------------|
6||--0---------------------------------3-------3-------------------------|

                Как нача-ло высо-ка--а—а--а
              Em            C                   G                D
1||----------0-------------0---------------------1--------------2h3h2----|
2||--------0--0---------1-----0---0----------0---0----------3---------3--|
3||------0-------------0---------------------0-------0------2------------|
4||----2----------------------5---4---4/9----------------0---------------|
5||--------------2--3----------------------------------------------------|
6||--0---------------------------------------------------3---------------|

                 Как побе-да не со мной
               Em               C                 G                 D
1||----------0--------------0---------------1-----------------2h3h2---------|
2||--------0--0-----------1----1---------0-----------------3----------3-----|
3||------0---------------0---------0---0------------------2-----------------|
4||----2-----------------------2------------------------0-------------------|
5||-------------------2—3-----------3-------------0-2-3---------------------|
6||--0---------------------------------3-------3----------------------------|

                Как наде-жда не лег-ка
              Em            C                   G                D
1||----------0-------------0-------------------1------------------2h3h2----------|
2||--------0--0---------1---1--------------0----0-------------3---------3--------|
3||------0-------------0-------0---------0---------0--------2--------------------|
4||----2----------------------------------------------------0--------------------|
5||--------------2--3--------------3---------------------------------------------|
6||--0---------------------------------3----------------3------------------------|

              За окном стеной мете-е-е-ель
             Em          C            G              D
1||---------0-0-------0-0-0----------1--1-1---------2--2-2----|
2||-----0--0-0------2--1-1---------0---0-0--------3---3-3-----|
3||----0---0-0-----0---0-0-------0-----0-0------2-----2-2-----|
4||---2----2-2----------2-2-------------0-0----0-------0-0----|
5||--------2-2----3-----3-3-------------2-2-------------------|
6||-0------0-0----------0-0----3--------3-3-------------------|

               Жизнь по горло занесло
             Em          C            G              D
1||---------0-0-------0-0-0----------1--1-1---------2--2-2----|
2||-----0--0-0------2--1-1---------0---0-0--------3---3-3-----|
3||----0---0-0-----0---0-0-------0-----0-0------2-----2-2-----|
4||---2----2-2----------2-2-------------0-0----0-------0-0----|
5||--------2-2----3-----3-3-------------2-2-------------------|
6||-0------0-0----------0-0----3--------3-3-------------------|

                Сорвало финал с пете-е-е-ель
             Em          C            G              D
1||---------0-0-------0-0-0----------1--1-1---------2--2-2----|
2||-----0--0-0------2--1-1---------0---0-0--------3---3-3-----|
3||----0---0-0-----0---0-0-------0-----0-0------2-----2-2-----|
4||---2----2-2----------2-2-------------0-0----0-------0-0----|
5||--------2-2----3-----3-3-------------2-2-------------------|
6||-0------0-0----------0-0----3--------3-3-------------------|

                И поела все тепло
             Em          C            G              D
1||---------0-0-------0-0-0----------1--1-1---------2--2-2----|
2||-----0--0-0------2--1-1---------0---0-0--------3---3-3-----|
3||----0---0-0-----0---0-0-------0-----0-0------2-----2-2-----|
4||---2----2-2----------2-2-------------0-0----0-------0-0----|
5||--------2-2----3-----3-3-------------2-2-------------------|
6||-0------0-0----------0-0----3--------3-3-------------------|

Припев:  
   Em            C       
Играй как можешь сыграй
        G           D     
Закрой глаза и вернись
  Em             C         
Не пропади, но растай
        G         D
Да колее поклонись
  Em            C   
Мое окно отогрей
        G         D
Пусти по полю весной
  Em             C 
Не доживи, но созрей
        G           D 
Ты будешь вечно со мной
  Em             C 
Ты будешь вечно со мной
        G           D 
Ты будешь вечно со мно-о-о-ой
  Em         C 
Со мно-о-о-ой
 G   D
Е-ее-е... 

Проигрыш = Вступление:
               Em               C                 G                 D
1||----------0--------------0---------------1-----------------2h3h2------|
2||--------0--0-----------1----1---------0-----------------3----------3--|
3||------0---------------0---------0---0------------------2--------------|
4||----2-----------------------2------------------------0----------------|
5||-------------------2—3-----------3-------------0-2-3------------------|
6||--0---------------------------------3-------3-------------------------|

              Em            C                   G                D
1||----------0-------------0---------------------1--------------2h3h2------|
2||--------0--0---------1-----0---0----------0---0----------3---------3----|
3||------0-------------0---------------------0-------0------2--------------|
4||----2----------------------5---4---4/9----------------0-----------------|
5||--------------2--3------------------------------------------------------|
6||--0---------------------------------------------------3-----------------|

Куплет 2:
                          Ищут землю фонари
               Em               C                 G                 D
1||----------0--------------0---------------1-----------------2h3h2------|
2||--------0--0-----------1----1---------0-----------------3----------3--|
3||------0---------------0---------0---0------------------2--------------|
4||----2-----------------------2------------------------0----------------|
5||-------------------2—3-----------3-------------0-2-3------------------|
6||--0---------------------------------3-------3-------------------------|

                     К небу тянется свеча-а-а-а
              Em            C                   G                D
1||----------0-------------0---------------------1--------------2h3h2----|
2||--------0--0---------1-----0---0----------0---0----------3---------3--|
3||------0-------------0---------------------0-------0------2------------|
4||----2----------------------5---4---4/9----------------0---------------|
5||--------------2--3----------------------------------------------------|
6||--0---------------------------------------------------3---------------|

                        На снегу следы зари 
               Em               C                 G                 D
1||----------0--------------0---------------1-----------------2h3h2---------|
2||--------0--0-----------1----1---------0-----------------3----------3-----|
3||------0---------------0---------0---0------------------2-----------------|
4||----2-----------------------2------------------------0-------------------|
5||-------------------2—3-----------3-------------0-2-3---------------------|
6||--0---------------------------------3-------3----------------------------|

                             Крылья павшего луча
              Em            C                   G                D
1||----------0-------------0-------------------1------------------2h3h2----------|
2||--------0--0---------1---1--------------0----0-------------3---------3--------|
3||------0-------------0-------0---------0---------0--------2--------------------|
4||----2----------------------------------------------------0--------------------|
5||--------------2--3--------------3---------------------------------------------|
6||--0---------------------------------3----------------3------------------------|

              Что же, вьюга, налива-а-а-ай
             Em          C            G              D
1||---------0-0-------0-0-0----------1--1-1---------2--2-2----|
2||-----0--0-0------2--1-1---------0---0-0--------3---3-3-----|
3||----0---0-0-----0---0-0-------0-----0-0------2-----2-2-----|
4||---2----2-2----------2-2-------------0-0----0-------0-0----|
5||--------2-2----3-----3-3-------------2-2-------------------|
6||-0------0-0----------0-0----3--------3-3-------------------|

               Выпьем время натощак
             Em          C            G              D
1||---------0-0-------0-0-0----------1--1-1---------2--2-2----|
2||-----0--0-0------2--1-1---------0---0-0--------3---3-3-----|
3||----0---0-0-----0---0-0-------0-----0-0------2-----2-2-----|
4||---2----2-2----------2-2-------------0-0----0-------0-0----|
5||--------2-2----3-----3-3-------------2-2-------------------|
6||-0------0-0----------0-0----3--------3-3-------------------|

                Я спою ты в такт прола-а-а-ай
             Em          C            G              D
1||---------0-0-------0-0-0----------1--1-1---------2--2-2----|
2||-----0--0-0------2--1-1---------0---0-0--------3---3-3-----|
3||----0---0-0-----0---0-0-------0-----0-0------2-----2-2-----|
4||---2----2-2----------2-2-------------0-0----0-------0-0----|
5||--------2-2----3-----3-3-------------2-2-------------------|
6||-0------0-0----------0-0----3--------3-3-------------------|

                О затерянных веща-ах
             Em          C            G              D
1||---------0-0-------0-0-0----------1--1-1---------2--2-2----|
2||-----0--0-0------2--1-1---------0---0-0--------3---3-3-----|
3||----0---0-0-----0---0-0-------0-----0-0------2-----2-2-----|
4||---2----2-2----------2-2-------------0-0----0-------0-0----|
5||--------2-2----3-----3-3-------------2-2-------------------|
6||-0------0-0----------0-0----3--------3-3-------------------|


Припев. (весь припев перебором)
              Em            C                   G                D
1||----------0-------------0-------------------1------------------2h3h2----------|
2||--------0--0---------1---1--------------0----0-------------3---------3--------|
3||------0-------------0-------0---------0---------0--------2--------------------|
4||----2----------------------------------------------------0--------------------|
5|/--------------2--3--------------3---------------------------------------------|
6||--0---------------------------------3----------------3------------------------|

(а от сюда начинается бой)
             Em          C            G              D
1||---------0-0-------0-0-0----------1--1-1---------2--2-2----|
2||-----0--0-0------2--1-1---------0---0-0--------3---3-3-----|
3||----0---0-0-----0---0-0-------0-----0-0------2-----2-2-----|
4||---2----2-2----------2-2-------------0-0----0-------0-0----|
5||--------2-2----3-----3-3-------------2-2-------------------|
6||-0------0-0----------0-0----3--------3-3-------------------|

  Em             C 
Ты будешь вечно со мной
        G           D 
Ты будешь вечно со мно-о-о-ой
  Em       C 
Со мно-о-о-ой
 G     D
Е-ее-е...

Проигрыш = Вступление:
               Em               C                 G                 D
1||----------0--------------0---------------1-----------------2h3h2------|
2||--------0--0-----------1----1---------0-----------------3----------3--|
3||------0---------------0---------0---0------------------2--------------|
4||----2-----------------------2------------------------0----------------|
5||-------------------2—3-----------3-------------0-2-3------------------|
6||--0---------------------------------3-------3-------------------------|

              Em            C                   G                D
1||----------0-------------0---------------------1--------------2h3h2------|
2||--------0--0---------1-----0---0----------0---0----------3---------3----|
3||------0-------------0---------------------0-------0------2--------------|
4||----2----------------------5---4---4/9----------------0-----------------|
5||--------------2--3------------------------------------------------------|
6||--0---------------------------------------------------3-----------------|

Куплет 3: 
                          Осторожно не спеша
               Em               C                 G                 D
1||----------0--------------0---------------1-----------------2h3h2------|
2||--------0--0-----------1----1---------0-----------------3----------3--|
3||------0---------------0---------0---0------------------2--------------|
4||----2-----------------------2------------------------0----------------|
5||-------------------2—3-----------3-------------0-2-3------------------|
6||--0---------------------------------3-------3-------------------------|

                      С белым ветром на груди
              Em            C                   G                D
1||----------0-------------0---------------------1--------------2h3h2----|
2||--------0--0---------1-----0---0----------0---0----------3---------3--|
3||------0-------------0---------------------0-------0------2------------|
4||----2----------------------5---4---4/9----------------0---------------|
5||--------------2--3----------------------------------------------------|
6||--0---------------------------------------------------3---------------|

                      Где у вмерзшей в лед ладьи
               Em               C                 G                 D
1||----------0--------------0---------------1-----------------2h3h2---------|
2||--------0--0-----------1----1---------0-----------------3----------3-----|
3||------0---------------0---------0---0------------------2-----------------|
4||----2-----------------------2------------------------0-------------------|
5||-------------------2—3-----------3-------------0-2-3---------------------|
6||--0---------------------------------3-------3----------------------------|

                            Ждет озябшая душа.
              Em            C                   G                D
1||----------0-------------0-------------------1------------------2h3h2----------|
2||--------0--0---------1---1--------------0----0-------------3---------3--------|
3||------0-------------0-------0---------0---------0--------2--------------------|
4||----2----------------------------------------------------0--------------------|
5||--------------2--3--------------3---------------------------------------------|
6||--0---------------------------------3----------------3------------------------|
 
 

Видео