ДДТ - Новое сердце, аккорды

Прокрутка
Тональность
Шрифт
100
Вступление: x2
            (напористо)                        (замедляя)
      Bm           G            Em           F#7  
  1|------------------------------------------------------
  2|----2-3-2-3-0----0-1-0-1-0----0-1-0-1-0----3-3-3-2-0--
  3|----4-4-4-4-0----0-0-0-0-0----0-0-0-0-0----0-0-0-0-0--
  4|------------------------------------------------------
  5|--2---------------------------------------------------
  6|---3------------0------------0------------------------

Куплет:
      D            F#           Bm           G  
  1|--------2------------2------------0-------------------
  2|------3---3--------2---2------2-3---3-2--------3-2-0--
  3|----2-------2----3-------3-------------------0--------
  4|--0----------------------------------------0----------
  5|----------------2-------------------------------------
  6|---2-------------------------3------------------------

      D            F#           Bm           G  
  1|--------2------------2--------------------------------
  2|------3---3--------2---2------2-3-2-3-0----0-2-0-2----
  3|----2-------2----3-------3-------------------------2--
  4|--0---------------------------------------------------
  5|----------------2-------------------------------------
  6|---2-------------------------3------------------------

       D              F#
  Небо звездное, метель августа, 
     Bm               G
  На дороге машин канителица,
       D              F#
  Возят засуху, а мне радостно –
       Bm            G
  Знаю точно, погода изменится!
 
       D              F#
  Я смотрю наверх, там где мы живем,
     Bm               G
  Так все тихо, сухо, да правильно.
       D              F#
  Я же из тех, кому нет победы днем,
     Bm               G
  Я как степь дышу сном неправедным.
 
       D              F#
  Я по засухе, ведро полное
     Bm               G
  Между фар лисой, живьем пламени.
       D              F#
  Я так мал, а вокруг все огромное,
     Bm               G
  И плевать, что ни ружья да ни знамени!
 
       D              F#
  Небо звездное, метель августа,
     Bm               G
  Оглянись – расцветает пророчество.
       D              F#
  Дело степь мое – одиночество,
     Bm               G
  Смерти нет, но всегда – пожалуйста.
 
Припев:
      D            F#           Bm           G  
  1|--------2------------2------------2-------------------
  2|------3---3--------2---2--------3---3----------3-2-0--
  3|----2-------2----3-------3----4-------4------0--------
  4|--0----------------------------------------0----------
  5|----------------2-------------------------------------
  6|---2-------------------------3------------------------

      D            F#           G            E
  1|--------2------------2------------3------------0------
  2|------3---3--------2---2--------3---3--------0---0----
  3|----2-------2----3-------3----4-------4----1-------1--
  4|--0---------------------------------------------------
  5|------------------------------------------------------
  6|---2------------3------------0------------------------

  D     F#     Bm            G
  Новое сердце взорвется над нами
  D     F#    G          E
  Новая жизнь позовет за собой.
  D     F#     Bm          G
  И освященный седыми богами
  D     F#    G          E
  Я, как на праздник, пойду за тобой.
 
Мелодический эпизод:
      Bm           G            Em           F#7  
  1|------------------------------------------------------
  2|----2-3-2-3-0----0-1-0-1-0----0-1-0-1-0----0-1-0-1-0--
  3|------------------------------------------------------
  4|------------------------------------------------------
  5|--2---------------------------------------------------
  6|---3------------0------------3------------------------

                                    (замедляя)
      Bm           G            Em           F#7  
  1|------------------------------------------------------
  2|----2-3-2-3-0----0-1-0-1-0----0-1-0-1-0----3-3-3-2-0--
  3|------------------------------------------------------
  4|------------------------------------------------------
  5|--2---------------------------------------------------
  6|---3------------0------------0------------------------
 
Куплет:
       D              F#
  Небо звездное, руки августа,
     Bm               G
  На дороге машин метелица
       D              F#
  Что пожнем, когда пыль рассеется
     Bm               G
  Степь красна, как чернила Фауста.
 
       D              F#
  Ночь светла, как круги от времени,
     Bm               G
  Что забросил я в смерть уставшую.
       D              F#
  Все дороги растут из семени,
     Bm               G
  Не дошедшего, да недоспавшего…
 
       D              F#
  Жду от нового века, белого,
     Bm               G
  Продолжения понимания,
       D              F#
  Что мы часть всего безответного,
     Bm               G
  Что мы ночь всего ожидания.
 
Припев:
      D            F#           Bm           G  
  1|--------2------------2------------2-------------------
  2|------3---3--------2---2--------3---3----------3-2-0--
  3|----2-------2----3-------3----4-------4------0--------
  4|--0----------------------------------------0----------
  5|----------------2-------------------------------------
  6|---2-------------------------3------------------------

      D            F#           G            E
  1|--------2------------2------------3------------0------
  2|------3---3--------2---2--------3---3--------0---0----
  3|----2-------2----3-------3----4-------4----1-------1--
  4|--0---------------------------------------------------
  5|------------------------------------------------------
  6|---2------------3------------0------------------------

  D     F#     Bm            G
  Новое сердце взорвется над нами
  D     F#    G          E
  Новая жизнь позовет за собой.
  D     F#     Bm          G
  И освященный седыми богами
  D     F#    G          E
  Я, как на праздник, пойду за тобой.

  D     F#     Bm            G
  Новое сердце взорвется над нами
  D     F#    G          E
  Новая жизнь позовет за собой.
  D     F#     Bm          G
  И освященный седыми богами
  D     F#    G          E
  Я, как на праздник, пойду за тобой.

Мелодический эпизод:
      Bm           G            Em           F#7  
  1|------------------------------------------------------
  2|----2-3-2-3-0----0-1-0-1-0----0-1-0-1-0----0-1-0-1-0--
  3|------------------------------------------------------
  4|------------------------------------------------------
  5|--2---------------------------------------------------
  6|---3------------0------------3------------------------

                                    (замедляя)
      Bm           G            Em           F#7  
  1|------------------------------------------------------
  2|----2-3-2-3-0----0-1-0-1-0----0-1-0-1-0----3-3-3-2-0--
  3|------------------------------------------------------
  4|------------------------------------------------------
  5|--2---------------------------------------------------
  6|---3------------0------------0------------------------
 
 
Свернуть Распечатать

Видео