ДДТ - Вороны, аккорды

Прокрутка
Тональность
Шрифт
100
    Em     Cmaj7     Am7     B+7
На небе вороны, под небом монахи,
    Em     Cmaj7     Am7     B+7
И я между ними в расшитой рубахе,
   Cmaj7              Am7     B+7
Лежу на просторе, легка и пригожа,
   Em          Cmaj7 Am7      B+7
И солнце взрослее, и ветер моложе.

    Em     Cmaj7     Am7     B+7
Меня отпевали в громадине храма,
    Em     Cmaj7     Am7     B+7
Была я невеста, прекрасная дама,
   Cmaj7              Am7   B+7
Душа моя рядом стояла и пела,
    Em     Cmaj7     Am7     B+7
Но люди, не веря, смотрели на тело.

    Em     Cmaj7     Am7     B+7
Судьба и молитва менялись местами,
    Em     Cmaj7     Am7     B+7
Молчал мой любимый и крестное знамя,
   Cmaj7              Am7   B+7
Лицо его светом едва освещало,
    Em     Cmaj7     Am7     B+7
Простила ему, я ему все прощала.

    Em     Cmaj7     Am7     B+7
Весна, задрожав от печального звона,
    Em     Cmaj7     Am7     B+7
Смахнула три капли на лики иконы,
   Cmaj7              Am7     B+7
Что мирно покоилась между руками,
    Em     Cmaj7     Am7   B+7
И я целовала веселое пламя.

    Em     Cmaj7     Am7    B+7
Свеча догорела, упало кадило,
    Em     Cmaj7     Am7     B+7
Земля, застонав, превращалась в могилу,
   Cmaj7              Am7     B+7
Я бросилась в небо за легкой синицей,
    Em     Cmaj7     Am7     B+7
Теперь я на воле, я Белая Птица.

    Em     Cmaj7     Am7     B+7
Взлетев на прощанье, кружась над родными,
    Em     Cmaj7     Am7     B+7
Смеялась я, горе их не понимая,
   Cmaj7              Am7     B+7
Мы встретимся вскоре, но будем иными,
    Em     Cmaj7     Am7     B+7
Есть вечная воля, зовет меня стая.

Соло (как оно выглядит на гитаре)
1|-8-7-5-3-0--7--5-7-5--0----8-7-5-3-12--7--5-7-5--0--

1|--3--8-7-5-7--5--0----12--12-10-8-7--5--0-|

Комментарий автора:

Переборы:
   Em        Cmaj7     Am7       B+7
1|---------|---------|---------|---------|
2|---------|---------|---------|---------|
3|-----0---|-----0---|-----0---|-----0---|
4|---2---2-|---2---2-|---2---2-|---1---1-|
5|---------|-3-------|-0-------|---------|
6|-0-------|---------|---------|-2-------|

Начиная с "Весна задрожав..."
1|---------|---------|---------|---------|
2|---0-0-0-|---0-0-0-|---1-1-1-|---0-0-0-|
3|---0-0-0-|---4-4-4-|---0-0-0-|---0-0-0-|
4|---2-2-2-|---2-2-2-|---2-2-2-|---1-1-1-|
5|---------|-3-------|-0-------|---------|
6|-0-------|---------|---------|-2-------|

Между куплетами - куски основного соло в разном порядке.
 
 
Свернуть Распечатать

Видео