ДДТ - Романс, аккорды

Прокрутка
Тональность
Шрифт
100
Вступление:
 Am       B7  Em      C   Am      B7       Em      E7
|-----------|-----------|-----------------|-----------|
|-------5-4-|-----------|-----------------|-----------|
|---4-5-----|-----4-7-5-|-------5-4---4---|---------5-|
|-7---------|-5-7-------|-4-5-7-----4---7-|-5-4-5-7---|
|-----------|-----------|-----------------|-----------|
|-----------|-----------|-----------------|-----------|

 Am       B7  Em      C          Am      B7        Em
|-----------|------------------|-----------------|-----------|
|-------5-4-|------------------|-----------------|-----------|
|---4-5-----|-----4-7-5--4-----|-------5-4---4---|-----------|
|-7---------|-5-7----------7-5-|-4-5-7-----4---7-|-5-4-------|
|-----------|------------------|-----------------|-----7-6-7-|
|-----------|------------------|-----------------|-----------|

           Am         B7
Январским вечером храним
         Em       C
Под ледяными куполами
        Am         B7
Стою невидим невредим,
           Em         E7
Храним землею, но не Вами.
        Am           B7
Вы постоянно в стороне,
               Em           C
Как смерть близки и неподвластны...
           Am          B7
Но тем не менее - прекрасны,
           Em
Как сны о Мире на войне.

Проигрыш:
 Am       B7 Em       C         Am       B7        Em      E7
|-----------|------------------|-----------------|-----------|
|-------5-4-|------------------|-----------------|-----------|
|---4-5-----|-----4-7-5--4-----|-------5-4---4---|---------5-|
|-7---------|-5-7----------7-5-|-4-5-7-----4---7-|-5-4-5-7---|
|-----------|------------------|-----------------|-----------|
|-----------|------------------|-----------------|-----------|

 Am       B7         Em        C           Am       B7        Em
|------------------|------7-10-8--7------|--------8-7---7----|-----------|
|-------5-4--4-5-7-|-8-10-----------10-8-|-7-8-10-----7---10-|-8-7-------|
|---4-5------------|---------------------|-------------------|-----9-8-9-|
|-7----------------|---------------------|-------------------|-----------|
|------------------|---------------------|-------------------|-----------|
|------------------|---------------------|-------------------|-----------|

       Am         B7
Я понимаю, что у Вас
         Em       C
Таких как я довольно много,
           Am         B7
И не украсит Ваших глаз
         Em       E7
Моя нелегкая дорога.
           Am      B7
Но я ищу, ращу слова,
         Em       C
Вам посвящаю каждый вечер,
           Am         B7
Как объяснивший небо кречет,
         Em       
Как хлеб, познавший жернова.

Проигрыш:
 Am       B7 Em       C         Am       B7        Em      E7
|-----------|------------------|-----------------|-----------|
|-------5-4-|------------------|-----------------|-----------|
|---4-5-----|-----4-7-5--4-----|-------5-4---4---|---------5-|
|-7---------|-5-7----------7-5-|-4-5-7-----4---7-|-5-4-5-7---|
|-----------|------------------|-----------------|-----------|
|-----------|------------------|-----------------|-----------|

 Am       B7         Em        C           Am       B7        Em
|------------------|------7-10-8--7------|--------8-7---7----|-----------|
|-------5-4--4-5-7-|-8-10-----------10-8-|-7-8-10-----7---10-|-8-7-------|
|---4-5------------|---------------------|-------------------|-----9-8-9-|
|-7----------------|---------------------|-------------------|-----------|
|------------------|---------------------|-------------------|-----------|
|------------------|---------------------|-------------------|-----------|

           Am         B7
Сегодня ночью Рождество,
         Em       C
Звезда рассыплется на свечи,
           Am        B7
И мы сольемся в одного,
         Em       E7
И он возьмет, и он ответит.
           Am         B7
И поведет нас под венец,
         Em       C
У алтаря откроет тайну,
           Am         B7
Что все на свете не случайно,
         Em       
И смерть для жизни - не конец.

Проигрыш:
 Am       B7 Em       C         Am       B7        Em      E7
|-----------|------------------|-----------------|-----------|
|-------5-4-|------------------|-----------------|-----------|
|---4-5-----|-----4-7-5--4-----|-------5-4---4---|---------5-|
|-7---------|-5-7----------7-5-|-4-5-7-----4---7-|-5-4-5-7---|
|-----------|------------------|-----------------|-----------|
|-----------|------------------|-----------------|-----------|

 Am       B7         Em        C           Am       B7        Em
|------------------|------7-10-8--7------|--------8-7---7----|-----------|
|-------5-4--4-5-7-|-8-10-----------10-8-|-7-8-10-----7---10-|-8-7-------|
|---4-5------------|---------------------|-------------------|-----9-8-9-|
|-7----------------|---------------------|-------------------|-----------|
|------------------|---------------------|-------------------|-----------|
|------------------|---------------------|-------------------|-----------|

           Am         B7
Январским вечером храним
         Em       C
Под ледяными куполами
           Am         B7
Молча невидим невредим,
         Em       
Храним землею и всеми Вами.
 
 
Свернуть Распечатать

Видео