ДДТ - 180 см, аккорды

Прокрутка
Тональность
Шрифт
100
Проигрыш: G G/C G C D (просто по разу вниз по струнам) 

  G     C           G          C
[-------------------------------------------]
[-------------------------------------------]
[---------------0-----------0-------------0-]
[-0---------0-----0-----2----2-----2--------]
[-2-----2------------3----------3--------3--]
[-3-----------------------------------------]

[-------------------------]
[-------------------------]
[---------------0---------]
[-0---------0-----0-----2-]
[-2-----2------------3----]
[-3-----------------------] C (вниз по струнам)

Далее куплет: G G/C G Am D

Сто восемьдесят сантиметров назад мы были одни…
[-----------------------------------------------------------------------]
[-------3------3-----------3-----3----------3------3-----------3------3-]
[-----0---0------0------0---0-----0------2---2------2------2---2------2-]
[---0-------0---------2--------2--------2-------2---------0--------3----]
[--------------------3-----------------0------------------0-------------]
[-3---------------------------------------------------------------------]

…мама, я тебе был так рад, и девять месяцев лили дожди…
[--------------------------------------------------------------------2^3^2-]
[-------3------3-----------3-----3----------3------3-----------3-----------]
[-----0---0------0------0---0-----0------2---2------2------2---------------]
[---0-------0---------2--------2--------2-------2---------0----------------]
[--------------------3-----------------0------------------0----------------]
[-3------------------------------------------------------------------------]

Таким образом играются все 3 куплета.

После куплетов идет соло G C D:
[------------------------------------------------------------2^3^2----]
[-----------------3---0----------------------------------3----------3-]
[------0-------0---0---0---0---0------0---0--------2----------------2-]
[---0-------0------------------------2----0---0---0-------------------]
[---------2---------------3---2---0-----------------------------------]
[-3-------------------------------------------------------------------]

[------------------------------------------------------------2------2--]
[-----------------3---0----------------------------------3----3------3-]
[------0-------0---0-------0---0------0---0--------2----------2--------]
[---0-------0------------------------2----0---0---0--------------------]
[-------------------------3---2---0------------------------------------]
[-3--------------------------------------------------------------------]

G         C             
180 сантиметров назад
G/A        D
Мы были одни.
G         C             
Мама, я тебе был так рад,
G/A        D
И девять месяцев лили дожди.

G         C             
И девять месяцев пела вода,
G/A        D
А потом обратилась в лед.
G         C             
И тот, кто съел пуповину и порвал провода,
G/A        D
Благословил наш первый полет.

G         C             
180 сантиметров назад
G/A        D
Над нашей бренной землей
G         C             
Гнал лошадей непокорный отряд,
G/A        D
Закован медной броней.

G         C             
Империя рушилась, резали власть
G/A        D
Тайны дворцовых теней,
G         C             
Но земля победила, не позволив пропасть,
G/A        D
Превратила нас в стаю камней.

G         C             
180 сантиметров назад
G/A        D
Ты вышивала следы,
G         C             
По которым пройду я и встану у врат
G/A        D
Града небесной руды.

G         C             
Золотые дороги в холодном снегу,
G/A        D
Я хочу и могу быть живым,
G         C             
И один сантиметр для нас берегу,
G/A        D
Мы вырастим следом за ним.
 
 
Свернуть Распечатать

Видео