ДДТ - 180 см, аккорды

Прокрутка
Тональность
Шрифт
100
G         C             
180 сантиметров назад
G\A         D
Мы были одни.
Мама, я тебе был так рад,
И девять месяцев лили дожди.

И девять месяцев пела вода,
А потом обратилась в лед.
И тот, кто съел пуповину и порвал провода,
Благословил наш первый полет.

180 сантиметров назад
Над нашей бренной землей
Гнал лошадей непокорный отряд,
Закован медной броней.

Империя рушилась, резали власть
Тайны дворцовых теней,
Но земля победила, не позволив пропасть,
Превратила нас в стаю камней.

180 сантиметров назад
Ты вышивала следы,
По которым пройду я и встану у врат
Града небесной руды.

Золотые дороги в холодном снегу,
Я хочу и могу быть живым,
И один сантиметр для нас берегу,
Мы вырастим следом за ним.

 

Комментарий автора:

Сначала идет небольшой проигрыш – просто по разу вниз по струнам: G, G/C, G, C, D.

Затем идет вступительный проигрыш G, C, G, C:

[----------------------------------------------------]
[----------------------------------------------------]
[---------------0-----------0-------------0---------]
[-0---------0-----0-----2----2-----2--------------]
[-2-----2------------3----------3--------3---------]
[-3--------------------------------------------------]

[----------------------------------------------------]
[----------------------------------------------------]
[---------------0------------------------------------]
[-0---------0-----0-----2--------------------------]
[-2-----2------------3------------------------------]
[-3--------------------------------------------------] И проводим по струнам вниз (аккорд С).

Далее куплет: G, G/C, G/Am, D.

Сто восемьдесят сантиметров назад мы были одни…
[-------------------------------------------------------------------------------]
[-------3------3-----------3-----3----------3------3-----------3------3-----]
[-----0---0------0------0---0-----0------2---2------2------2---2------2---]
[---0-------0---------2--------2--------2-------2---------0--------3--------]
[--------------------3-----------------0------------------0--------------------]
[-3-----------------------------------------------------------------------------]

…мама, я тебе был так рад, и девять месяцев лили дожди…
[--------------------------------------------------------------------2^3^2----]
[-------3------3-----------3-----3----------3------3-----------3-------------]
[-----0---0------0------0---0-----0------2---2------2------2---------------]
[---0-------0---------2--------2--------2-------2---------0------------------]
[--------------------3-----------------0------------------0--------------------]
[-3-----------------------------------------------------------------------------]

Таким образом играются все 3 куплета.

После куплетов идет соло G, C, D:

[------------------------------------------------------------2^3^2------------]
[-----------------3---0----------------------------------3----------3---------]
[------0-------0---0---0---0---0------0---0--------2----------------2------]
[---0-------0------------------------2----0---0---0--------------------------]
[---------2---------------3---2---0-------------------------------------------]
[-3-----------------------------------------------------------------------------]

[------------------------------------------------------------2------2----------]
[-----------------3---0----------------------------------3----3------3-------]
[------0-------0---0-------0---0------0---0--------2----------2------------]
[---0-------0------------------------2----0---0---0--------------------------]
[-------------------------3---2---0--------------------------------------------]
[-3-----------------------------------------------------------------------------]
 
 
Свернуть Распечатать

Видео