ДДТ - Свобода, аккорды

Прокрутка
Тональность
Шрифт
100
E|-------0---------0---------0------------0--------------------|
B|-------1---------3---------1----------3---3------------------|
G|-----2---2-----2---2-----2---2-----4^5------4----------------|
D|-------------3---------3---------5---------------------------|
A|---0---------------------------------------------------------|
E|-------------------------------------------------------------|
  Я еду к тебе,  это странное  место,

E|-------0---------0---------0--------------------0------------|
B|-------1---------3---------1-----------1^0------3------------|
G|-----2---2-----2---2-----2---2-------0----0-----4------------|
D|-------------3---------3-----------0--------0---5------------|
A|---0---------------------------------------------------------|
E|---------------------------------3---------------------------|
Туман на болоте без цвета и  дна.

E|-------0---------0---------0------------0--------------------|
B|-------1---------3---------1----------3---3------------------|
G|-----2---2-----2---2-----2---2-----4^5------4----------------|
D|-------------3---------3---------5---------------------------|
A|---0---------------------------------------------------------|
E|-------------------------------------------------------------|
Я твой вечный жених, золотая невеста,

E|-------0---------0---------0--------------------0------------|
B|-------1---------3---------1-----------1^0------3------------|
G|-----2---2-----2---2-----2---2-------0----0-----4------------|
D|-------------3---------3-----------0--------0---5------------|
A|---0---------------------------------------------------------|
E|---------------------------------3---------------------------|
Лижут мысли, как мухи, стекла окна.

E|-------0---------0---------0------------0--------------------|
B|-------1---------3---------1----------3---3------------------|
G|-----2---2-----2---2-----2---2-----4^5------4----------------|
D|-------------3---------3---------5---------------------------|
A|---0---------------------------------------------------------|
E|-------------------------------------------------------------|
Зима на спине, я не стар и не молод.

E|-------0---------0---------0--------------------0------------|
B|-------1---------3---------1-----------1^0------3------------|
G|-----2---2-----2---2-----2---2-------0----0-----4------------|
D|-------------3---------3-----------0--------0---5------------|
A|---0---------------------------------------------------------|
E|---------------------------------3---------------------------|
Ночь похожа на лифт, в котором умер поэт.

E|-------0---------0---------0------------0--------------------|
B|-------1---------3---------1----------3---3------------------|
G|-----2---2-----2---2-----2---2-----4^5------4----------------|
D|-------------3---------3---------5---------------------------|
A|---0---------------------------------------------------------|
E|-------------------------------------------------------------|
Я по уши сыт, да разбудил горький голод,

E|-------0---------0---------0--------------------0------------|
B|-------1---------3---------1-----------1^0------3------------|
G|-----2---2-----2---2-----2---2-------0----0-----4------------|
D|-------------3---------3-----------0--------0---5------------|
A|---0---------------------------------------------------------|
E|---------------------------------3---------------------------|
Руки чувствуют пульс, я зеваю на свет.

Припев:
E|-------0-----------------0--------------0--------------------|
B|-------1--------3--------1------------0---0------------------|
G|-----2---2------2------0---0-------1^2------1----------------|
D|--------------0---0------------------------------------------|
A|--0------------------3---------------------------------------|
E|------------2--------------------0---------------------------|

Мама, разбуди черным вечером,
Мама, чтоб я ночь не проспал.
Мама, я уйду, как намечено,
Мама, мама, мама, как я устал.

E|-------0---------0---------0------------0--------------------|
B|-------1---------3---------1----------3---3------------------|
G|-----2---2-----2---2-----2---2-----4^5------4----------------|
D|-------------3---------3---------5---------------------------|
A|---0---------------------------------------------------------|
E|-------------------------------------------------------------|
Гроза по глазам, напротив морщинами

E|-------0---------0---------0--------------------0------------|
B|-------1---------3---------1-----------1^0------3------------|
G|-----2---2-----2---2-----2---2-------0----0-----4------------|
D|-------------3---------3-----------0--------0---5------------|
A|---0---------------------------------------------------------|
E|---------------------------------3---------------------------|
Скребет по стеклу седая рука.

E|-------0---------0---------0------------0--------------------|
B|-------1---------3---------1----------3---3------------------|
G|-----2---2-----2---2-----2---2-----4^5------4----------------|
D|-------------3---------3---------5---------------------------|
A|---0---------------------------------------------------------|
E|-------------------------------------------------------------|
Мимо павших идей проплывают причинами,

E|-------0---------0---------0--------------------0------------|
B|-------1---------3---------1-----------1^0------3------------|
G|-----2---2-----2---2-----2---2-------0----0-----4------------|
D|-------------3---------3-----------0--------0---5------------|
A|---0---------------------------------------------------------|
E|---------------------------------3---------------------------|
В тумане чуть видимы, ветви - века,

E|-------0---------0---------0------------0--------------------|
B|-------1---------3---------1----------3---3------------------|
G|-----2---2-----2---2-----2---2-----4^5------4----------------|
D|-------------3---------3---------5---------------------------|
A|---0---------------------------------------------------------|
E|-------------------------------------------------------------|
Растет за окном последняя станция,

E|-------0---------0---------0--------------------0------------|
B|-------1---------3---------1-----------1^0------3------------|
G|-----2---2-----2---2-----2---2-------0----0-----4------------|
D|-------------3---------3-----------0--------0---5------------|
A|---0---------------------------------------------------------|
E|---------------------------------3---------------------------|
Здесь отпевают, верхний этаж.

E|-------0---------0---------0------------0--------------------|
B|-------1---------3---------1----------3---3------------------|
G|-----2---2-----2---2-----2---2-----4^5------4----------------|
D|-------------3---------3---------5---------------------------|
A|---0---------------------------------------------------------|
E|-------------------------------------------------------------|
Здравствуй, любовь, получи информацию,

E|-------0---------0---------0--------------------0------------|
B|-------1---------3---------1-----------1^0------3------------|
G|-----2---2-----2---2-----2---2-------0----0-----4------------|
D|-------------3---------3-----------0--------0---5------------|
A|---0---------------------------------------------------------|
E|---------------------------------3---------------------------|
Да не промахнись и сотри макияж.

Припев:
E|-------0-----------------0--------------0--------------------|
B|-------1--------3--------1------------0---0------------------|
G|-----2---2------2------0---0-------1^2------1----------------|
D|--------------0---0------------------------------------------|
A|--0------------------3---------------------------------------|
E|------------2--------------------0---------------------------|

Мама, разбуди черным вечером,
Мама, чтоб я ночь не проспал.
Мама, я уйду, как намечено,
Мама, мама, мама, как я устал.

Am D C E   D(200230)
Свобода...
 
 

Видео