ДДТ - Герой, аккорды

Прокрутка
Тональность
Шрифт
100
Проигрыш D G D G ( C F C F )

  C ( D )
Ты думал, что здесь легко встать
   B ( A )
Высоко полететь, глубоко не упасть
  F ( G )                 C ( Dsus4 D )
Познать этот мир и остаться счастливым,
Ты принес в него веру, добро и кулак.
Нарезая любовь, раздавал просто так,
Всем кто хотел - ты всех осчастливил.

Припев:
       G ( F )              Dsus4 D ( C )
     Теперь у тебя одна скучная комната
     Ты в темных очках ждешь конца света,
     Душа в теле женщины рядом, но не дома ты,
     Ты там где в брошенных стенах желтеют газеты.

Ты думал, что вечны тело и мир,
И все подвластно - судьба и Памир,
Что Бог подарил эту жизнь совершенно бесплатно,
Но ты не заметил, как кончился газ,
И смыло с врагами любовь в унитаз,
И водя по щеке ржавой бритвой, ты не узнал себя.

Припев...

Проигрыш:
E|-------------------------------------------------------------|
B|-------------------------------------------------------------|
G|---7-7--9------7-7--11------7-7--9------7-7--11--------------|
D|---7-7--9--9---7-7--11--9---7-7--9--9---7-7--11--9-----------|
A|---5-5--7--9---5-5--9---9---5-5--7--9---5-5--9---9-----------|
E|-----------7------------7-----------7------------7-----------|

E|---------------------------------------------------------|
B|---------------------------------------------------------|
G|---7-7--9------7-7--11------7-7--9------7-7--9-----------| 2Р.
D|---7-7--9--9---7-7--11--9---7-7--9--9---7-7--9--9--------|
A|---5-5--7--9---5-5--9---9---5-5--7--9---5-5--7--9--------|
E|-----------7------------7-----------7-----------7--------|

E|-------------------------------------------------------------|
B|-------------------------------------------------------------|
G|---7-7--9------7-7--11------7-7--9------7~~------------------|
D|---7-7--9--9---7-7--11--9---7-7--9--9---7~~------------------|
A|---5-5--7--9---5-5--9---9---5-5--7--9---5~~------------------|
E|-----------7------------7-----------7------------------------|

В тебя целятся, но не хотят стрелять
Мы стоим столько, сколько можем дать
Люди абсурдны, мир сходит с ума, чтоб быть счастливым,
Кончилось небо, сгорели мосты,
И забыв твое имя, приносят цветы,
Туда, где ты всех победил,
Стал абсолютно счастливым.

       F ( G )              C ( Dsus4 D )
     Теперь у тебя одна бескрайняя комната
     И ты без очков ждешь только света,
     Душа в теле женщины рядом, с нею дома ты
     Ты там, где играют песни грядущего века.