ДДТ - Расстреляли рассветами, аккорды

Прокрутка
Тональность
Шрифт
100
Вступление: Am7 Fmaj7 G Em

     Am7         Fmaj7         D  Em
Расстреляли рассветами память, бредущюю в поле
   Am7         Fmaj7          D  Em
Исходили всю воду, а берега до сих пор нет
   Fmaj7                    G  Em
Поменяли, не глядя, на правду свободную волю
    Fmaj7                    D   Em
Да пожгли фонари, не познав, где кончается свет

Я не сплю мое время, как смертник, скребет по бумаге
Я в конюшне для птиц, я в плену отношений ко дну
У бездомного пса видишь больше ходячей отваги
Как подняв свою лапу, он лечит больню страну

Проигрыш: Am7 Fmaj7 D Em

Сколько веры в огне, сколько верности в тающем снеге
Так темно, я в аду иль за пазухой брата Христа
Ты бросаешь цветы на могилу, закутавшись в неге
Я лечу, как солдатики в счастье с гнилого моста

Съели жизнь в одночасье, десерт как всегда будет голод
Мы бросали слова в ROCK'n'ROLL, как незрячих щенков
Рано утром в тумане теплом отражается холод
Блеск ненужных, бездарных, в уценку счастливых подков

Проигрыш.

Я не знаю как жить, если смерть станет вдруг невозможной
Память вырвать не просто, как выклянчить песнию дождь
Имена на дверях перелистывая осторожно
Не заметишь как на пол гербарием выскользнет вождь

Раздарил всем по сердцу себе ничего не оставил
Чьи-то звезды вокруг, а мои перекрестки пусты
Вот и кончился бал я последнее в брюки заправил
Мы поклонникам вместо автографов ставим кресты

Золотая луна цвета спелого зрелого яда
Как стрелок, за окном целит мне в оловянную грудь
Все года по домам провожаю последнего взлядом
Твое вечное "знаю" запомнит и наше чуть-чуть


Гитара 1 (на 1 струне)
e|-0-3-0-5=======|8=|7-8-7-8-7-8-7-8-7-10-8|12====|13-12-10-5-7|
Гитара 2      | |               |    |        |
e|---------------|--|----------------------|------|------------|
B|---------------|--|----------------------|------|------------|
G|-----------0---|2=|0-2-0-2-0-2-0-2-0-----|------|------------|
D|---------2---2-----------------------0--0|2-----|3--2--0-----|
A|--------------------------------------------3-0-----------0-2|
E|-------------------------------------------------------------|

Мелодия в куплете:
e|--5---0-----0--3--5------0-----0--5--7--5--0---8----7--------|
B|----3----3-----------3-------3-------------------------------|
G|-------------------------------------------------------------|
D|-------------------------------------------------------------|
A|-------------------------------------------------------------|
E|-------------------------------------------------------------|

e|5-0-0-3-5-0-0-5-7-5-0-8-10-8-7-0-7-5-0-1---------------------|
B|-3-3-----3-3----------------------------3-0-------0-1-0-1-3-5|
G|--------------------------------------------0-0h2------------|
D|-------------------------------------------------------------|
A|-------------------------------------------------------------|
E|-------------------------------------------------------------|
 
 

Видео