Deadsy - Brand New Love, аккорды

Прокрутка
Тональность
Шрифт
100
Artist:Deadsy
Song:Brand New Love
Album:Commencment
Tabbed By:Scathier

I tabbed this song one whole step down

Intro/Verse

E--------------------------------------------------------------------------|
B---12-----12--12----10----10--10-----8---8---8---10--10--10---------------|
G-------9-----9---9------9----9----9-----9---9--9---9----9----9------------|
D--------------------------------------------------------------------------|
A--------------------------------------------------------------------------|
D--------------------------------------------------------------------------|


Chorus

E--------------------------------------------------------------------------|
B--------------------------------------------------------------------------|
G--------------------------------------------------------------------------|
D--2-2-2-2-2-2-2-2-9-9-9-9-9-9-9-9-7-7-7-7-7-7-7-7-7-7-7-7-7-7-7-7---------|
A--2-2-2-2-2-2-2-2-9-9-9-9-9-9-9-9-7-7-7-7-7-7-7-7-7-7-7-7-7-7-7-7---------|
D--2-2-2-2-2-2-2-2-9-9-9-9-9-9-9-9-7-7-7-7-7-7-7-7-7-7-7-7-7-7-7-7---------|


This Is Played Sometime During The Second Verse With Some Variations

E---------------------------------------------|
B---------------------------------------------|
G---------------------------------------------|
D---2--------7--------9--------7--------------|
A---2--------7--------9--------7--------------|
D---2--------7--------9--------7--------------|

the song is relativley simple,the intro/verse may just be a little shady but it sounds near perfect
to me,feel free to make any corrections if you'd like
 
 

Видео