Зачем удалили Цоя?
Отвечаем в отдельной теме

DeCody - 2.2 не выйдет НИКОГДА, аккорды

Прокрутка
Тональность
Шрифт
100
[Вступление]:
         Когда же она выйдет       Пока что, никому неизвестно    И, скорее всего
--5----3--------------------10--------------------------------8------------------
-6----3-----------------------10-------------------------------5-----------------
5----3--------------------------10------------------------------5----------------
---------------------------------------------------------------------------------
---------------------------------------------------------------------------------
---------------------------------------------------------------------------------

Это произойдёт внезапно, а может быть,    никогда не произойдёт    Я не могу точно сказать         К сожалению...
--5-------------------------------------3-----------------------10--------------------------------8-----------------
-6-------------------------------------3--------------------------10-------------------------------5----------------
5-------------------------------------3-----------------------------10------------------------------5---------------
--------------------------------------------------------------------------------------------------------------------
--------------------------------------------------------------------------------------------------------------------
--------------------------------------------------------------------------------------------------------------------

Песня: 
F      Gm
2.2 не выйдет никогда
Dm                     C
Потому что Роб ленивый как всегда.
F             Gm
Вовремя он не выпустил сник пик
Dm                   C
Демонстрируя нам большой диг биг.
F
Новые блоки, новые триггеры,
Gm
Новые фоны, редактор частиц,
   Dm
Система аккаунтов и мультиплеер:
    C 
Так много всего, но где же оно?
F
Сколько видосов, и новостей,
    Gm
Кликбейтных названий и прочих вестей.
  Dm
А всё потому, что 2.2
C
Может не выйдет вообще никогда.

Окончание:

--5----5----3----3----10----10------8----8--------5----5----3----3----10----10------8----8----
-6----6----3----3-------10----10-----5----5------6----6----3----3-------10----10-----5----5---
5----5----3----3----------10----10----5----5----5----5----3----3----------10----10----5----5--
----------------------------------------------------------------------------------------------
----------------------------------------------------------------------------------------------
---------------------------------------------------------------------------------------------- 
 
 
Свернуть Распечатать

Аппликатуры аккордов

Аккорд FАккорд GmАккорд DmАккорд C
помощники
1,107 2 05.06.2022

Видео