Deep Purple - Black Night, аккорды

Прокрутка
Тональность
Шрифт
100
Intro:
Riff 1:		
D---5-----------5---7-5---------5--- x2
A-7---7-5---7-5---7-----7--5-7----7-
E---------7-------------------------

Verse:
A-5--7-7--7-7--7-7--7-
Black night is not right
I don't feel so bright
I don't care to sit tight

Riff 2:		
A-7-5---5---5-9-7-5-7-5-----
E-----7---7-------------7-5-                     A
Maybe I'll find on the way down the line that I'm free
G         E
Free to be me
A               G             B
Black night is a long way from home

Riff 1:		
D---5-----------5---7-5---------5--- x2
A-7---7-5---7-5---7-----7--5-7----7-
E---------7-------------------------

Verse:
A-5--7-7--7-7--7-7--7-
I don't need a dark tree
I don't want a rough sea
I can't feel, I can't see

Riff 2:		
A-7-5---5---5-9-7-5-7-5-----
E-----7---7-------------7-5-                     A
Maybe I'll find on the way down the line that I'm free
G         E
Free to be me
A               G             B
Black night is a long way from home

Break:
A-5--7-7--7-7--7-7--7- x12

Riff 2:		
A-7-5---5---5-9-7-5-7-5-----
E-----7---7-------------7-5- 

G A }x12

Riff 1:		
D---5-----------5---7-5---------5--- x2
A-7---7-5---7-5---7-----7--5-7----7-
E---------7-------------------------

Verse:
A-5--7-7--7-7--7-7--7-
Black night, black night
I don't need black night
I can't see dark light

Riff 2:		
A-7-5---5---5-9-7-5-7-5-----
E-----7---7-------------7-5-                     A
Maybe I'll find on the way down the line that I'm free
G         E
Free to be me
A               G             B
Black night is a long way from home

Outro:
A-5--7-7--7-7--7-7--7- x15
 
 

Видео