Deep Purple - Smoke On The Water, аккорды

Прокрутка
Тональность
Шрифт
100
Main Riff:
e------------------------------------------------------|
b------------------------------------------------------|
g------1------5------7------1------5------6------7-----|
d------2------5------7------2------5------8------7-----|
a------2------3------5------2------3------8------5-----|
E------------------------------------------------------|

e------------------------------------------------------|
b------------------------------------------------------|
g------1------5------7------5------1-------------------|
d------2------5------7------5------2-------------------|
a------2------3------5------3------2-------------------|
E------------------------------------------------------|
 
 

Видео