Deep Purple - Soldier Of Fortune, аккорды

Прокрутка
Тональность
Шрифт
100
INTRO:
  Gm
e--------------3-----5----6/10---8h10r8----6----5---3----5-| 
B----------3-----------------------------------------------| 
G-------3--------------------------------------------------| 
D----5-----------------------------------------------------| 
A----------------------------------------------------------| 
E----------------------------------------------------------| 

        C
e----8-------8h10r8----6h8r6-------5h6r5-------3-|------3----6r5-----3-
B----8-------------------------------------------|--5------------------
G----9-------------------------------------------|---------------------
D---10-------------------------------------------|---------------------
A---10-------------------------------------------|---------------------
E----8-------------------------------------------|---------------------

Fill 1:
       D         C          Bb
e----------------------------- 
B----------------------------- 
G----------------------------- 
D------7---------5----------3- 
A------5---------3----------1- 
E----------------------------- 

Fill 2:
    Gm       F        Eb
e------------------------
B------------------------
G------------------------
D---12-------10--------8-
A---10--------8--------6-
E------------------------
Fill 3

e-----------------
B-----------------
G-----------------
D-----------------
A-----------6---5-
E-----------------

Solo:
e------------------------------|--------------------------------| 
B------------------------------|-----------11—11/13-------11/13-| 
G------10----10/12-------10/12-|-----12-------------------------| 
D------------------------------|--------------------------------| 
A------------------------------|--------------------------------|
E------------------------------|--------------------------------|

e-------13----13/15------13/15-|----------------------------| 
B--15--------------------------|----15b------11----------13-| 
G------------------------------|----------------------------| 
D------------------------------|----------------------------| 
A------------------------------|----------------------------| 
E------------------------------|----------------------------| 

e---------13----13/15---13/15-----------------------------
B----15-------------------------15b----11---13/15---13/15-
G---------------------------------------------------------
A---------------------------------------------------------
D---------------------------------------------------------
E---------------------------------------------------------

e-------------------------------------------------------------- 
B-----15b-----11---------13---------11/10----11/10------------- 
G-----------------------------------------------------------12- 
D-------------------------------------------------------------- 
A-------------------------------------------------------------- 
E-------------------------------------------------------------- 

Gm
I have often told you stories
F
about the way
   Gm
I lived the life of a drifter
Dm
waiting for the day
          Gm
When I'd take your hand and sing you songs
      F
Then maybe you would say
Gm
Come lay with me and love me
Dm                    [Bass D - C - Bb (Fill 1)]
And I would surely stay

  Bb       C              Gm [Bass G - F - Eb (Fill 2)]
  But I feel I'm growing older
            F                Bb
  And the songs that I have sung
   D            Gm
  Echo in the distance
             F
  Like the sound
        Bb              Eb [Bass Eb - D (Fill 3)]
  Of a windmill going round
  Cm                Dm
  Guess I'll always be
                Gm
  А soldier of fortune.

Solo: Gm C Gm C 
      Gm Bb C Gm

Gm
Many times I've been a traveller
A
I looked for something new
  Gm
In days of old when nights were cold
Dm
I wandered without you
         Gm
But those days I thought my eyes
      F
Had seen you standing near
Gm
Though blindness is confusing
Dm                    [Bass D - C - Bb (Fill 1)]
It shows that you're not here.

  Bb       C              Gm [Bass G - F - Eb (Fill 2)]
  But I feel I'm growing older
            F                Bb
  And the songs that I have sung
   D            Gm
  Echo in the distance
             F
  Like the sound
        Bb              Eb [Bass Eb - D (Fill 3)]
  Of a windmill going round
  Cm                Dm
  Guess I'll always be
                Gm
  А soldier of fortune.

       Eb             F
  Yes, I can hear the sound
         Bb           Eb [Bass Eb - D (Fill 3)]
  of a windmill going round
     Cm               Dm
  I guess I'll always be
                Gm
  a soldier of fortune.
     Eb         F
  I guess I'll always be
                G  
  a soldier of fortune.
 
 

Видео