Deep Purple - Woman From Tokyo, аккорды

Прокрутка
Тональность
Шрифт
100
Woman from Tokyo
Intro:
                                         Let ring

e-----------------------------------------------------------------------------------
B-----------------------------------------------------------------------------------
G--------------2--------2-----1-----------2--------1--------------------------------
D--------------2--------2----(2)----------2--------2-------2----------------0---(0)-
A--------------------------------------------------------------2-------0-h-2--------
E-----0--------------------------------0-----------------------------0--------------

e-----------------------------------------------------------------------------------
B-----------------------------------------------------------------------------------
G--------------2--------2-----1-----------2-------1---------------------------------
D--------------2--------2----(2)----------2--------2-------2-----3-----4------5-----
A-------------------------------------------------------------2------3-----4------5-
E-----0--------------------------------0-----------------------------------2------3-

e-------------------------------------------------------------3----------------------
B----------------------------------------------------------------5-p-3-p-0------0----
G----------------------------------------------------------------------------------5-
D------------2----------0-h-2----------2----------------------------------------4----
A-------------------(2)--------------------------------------------------------------
E--0--------------------------------0------------------------------------------------

e-----------------------------------------------------------------------------------------
B--------------------------------------------------------------------------------------(0)
G-----2----2-----1-----2-----1----------------------------------2--2----1------2---1------
D-----2----2----(2)----2-----2-----2----------------0---2-----2--2-(2)-----2---2----------
A-------------------------------------2---(2)-0-h-2---------------------------------------
E-0-------------------0-------------------------------------0------------------0----------

e-------------------------------------------------------------------------------------------------------
B--------------------------------------------------------------------------------------(0)--------------
G-----2----2-----1-----2-----1-------------------------------------2--2----1------2---1-----------------
D-----2----2----(2)----2-----2-----2----------------0-h---2------2--2-(2)----2----2---------------------
A-------------------------------------2---(2)-0-h-2-----------------------------------------------------
E-0-------------------0---------------------------------------0------------------0--------------1-2--3--

This is the Intro. Still to tab the verse. I'll tab the latter if I don't get bored, hate 
to tab for it takes too long to tab. Any thanks comment or death threat mail me at jibesh@hotmail.com.