Deep Purple - Smoke On The Water, аккорды

Прокрутка
Тональность
Шрифт
100
||------------------|----------------|----------------|--------------------||
||o-----------------|----------------|----------------|-------------------o||
||------------------|----------------|----------------|--------------------||
||--4-----5----7----|---4----5----8--|--3x------------|--------------------||
||o-4-----5----7----|---4----5----8--|----------------|-------------------o||
||--2-----3----5----|---2----3----6--|----------------|--------------------||

  Е Е Е Е Q  Е Е   Е Е Е Е Q  Q    Е Е Е Е Q  Е Е   Е Q.   +Q    Q
|----------------|---------------|----------------|--------------------|
|----------------|---------------|----------------|--------------------|
|-0---3---5----0-|---3---6-5-----|-0---3---5----3-|---0----(0)---------|
|-0---3---5----0-|---3---6-5-----|-0---3---5----3-|---0----(0)--(5)---|
|----------------|---------------|----------------|-------------(5)---|
|----------------|---------------|----------------|--------------------|

 Verse:
  PM----------------------------------------------|     PM------------|
  Е Е e Е Е Е e Е   Е Е e Е Е Е e Е   Е Е e Е Е Е e Е   Е Е e Е Е Е e Е
|-----------------|-----------------|-----------------|------------------|
|-----------------|-----------------|-----------------|------------------|
|-----------------|-----------------|-0---0-----------|---------0---0----|
|-----5-------5---|-----5-------5---|---0-----3---3---|-----5-----0------|
|---5-------5-----|---5-------5-----|-----------3-----|---5--------------|
|-3-------3-------|-3-------3-------|-----------------|-3----------------|

  PM------------------------------------------------------------------|
  Е Е e Е Е Е e Е   Е Е e Е Е Е e Е   Е Е e Е Е Е e Е   Е Е e Е Е Е e Е
|-----------------|-----------------|-----------------|------------------|
|-----------------|-----------------|-----------------|------------------|
|-----------------|-----------------|-----------------|------------------|
|-----5---5---5---|-----5-------5---|-----5-------5---|-----5-------3----|
|---5-------5-----|---5-------5-----|---5-------5-----|---5-------3------|
|-3---------------|-3-------3-------|-3-------3-------|-3-------1--------|

  PM------------------------------------------------------------------|
  Е Е e Е Е Е e Е   Е Е e Е Е Е e Е   Е Е e Е Е Е e Е   Е Е e Е Е Е e Е
|-----------------|-----------------|-----------------|------------------|
|-----------------|-----------------|-----------------|------------------|
|-----------------|-----------------|-----------------|------------------|
|-----5-------5---|-----5-------5---|-----5-------5---|-----5---3---3----|
|---5-------5-----|---5-------5-----|---5-------5-----|---5-------3------|
|-3-------3-------|-3-------3-------|-3-------3-------|-3----------------|

  PM---------------------------------------------------
  Е Е e Е Е Е e Е   Е Е e Е Е Е e Е   Е Е e Е Е Е e Е
|-----------------|-----------------|-----------------|
|-----------------|-----------------|-----------------|
|-----------------|-----------------|-----------------|
|-----5-------5---|-----5-------5---|-----5-------5---|
|---5-------5-----|---5-------5-----|---5-------5-----|
|-3-------3-------|-3-------3-------|-3-------3-------|

 ---------------------------------|
  Е Е e Е Е Е e Е   Е Е e Е Е Е e Е
|-----------------|-------------------||
|-----------------|-------------------||
|-----------------|-------------------||
|-----5---3---3---|-----5-------5-----||
|---5-------3-----|---5-------5-------||
|-3---------------|-3-------3---------||

 Chorus:
  Q  Q  Н      Q  Q  Н      Q  Е Е +Н
|------------|------------|---------------|
|------------|------------|---------------|
|-------5----|------------|------0-(0)----|
|----5-------|-------6----|----0----------|
|-3----------|----6-------|---------------|
|------------|-4----------|-3-------------|

  +W           Q  Q  Н      Q  Q  Q.  Е
|------------|------------|---------------|
|------------|------------|---------------|
|-(0)--------|-------5----|---------------|
|------------|----5-------|-------6-------|
|------------|-3----------|----6----------|
|------------|------------|-4-------------|

  Е Е Е Е Q  Е Е   Е Е Е Е Q.   Е   Е Е Е Е Q.   Е   +Е  Q.   +Q   Q
|----------------|----------------|----------------|-------------------|
|----------------|----------------|----------------|-------------------|
|-----3---5------|---3---6-5------|-----3---5----3-|-(3)---------------|
|-5---3---5----5-|---3---6-5------|-5---3---5----3-|-(3)-5----(5)------|
|-5------------5-|----------------|-5--------------|-----5----(5)------|
|----------------|----------------|----------------|-------------------|

  Е Е Е Е Q  Е Е   Е Е Е Е Q  Q    Е Е Е Е Q.   Е   Е Q.   +Q   Q
|----------------|---------------|----------------|------------------||
|----------------|---------------|----------------|------------------||
|-----3---5------|---3---6-5-----|-----3---5----3-|-------------5---||
|-5---3---5----5-|---3---6-5-----|-5---3---5----3-|---5----(5)--5---||
|-5------------5-|---------------|-5--------------|---5----(5)--5---||
|----------------|---------------|----------------|------------------||

   Verse:
    Е Е e Е Е Е e Е   Е Е e Е Е Е e Е   Е Е e Е Е Е e Е   Е Е e Е Е Е e Е  3x
||------------------|-----------------|-----------------|------------------||
||o-----------------|-----------------|-----------------|-----------------o||
||------------------|-----------------|-----------------|------------------||
||------5-------5---|-----5-------5---|-----5-------3---|-----5-------5----||
||o---5-------5-----|---5-------5-----|---5-------3-----|---5-------5-----o||
||--3-------3-------|-3-------3-------|-3-------1-------|-3-------3--------||

 Chorus:                            <
  Q  Q  Н      Q  Q  Н      W          +W           Q  Q  Н      Q  Q  Q.   Е
|------------|------------|----------|------------|------------|---------------|
|------------|------------|----------|------------|------------|---------------|
|-------5----|------------|-0--------|-(0)--------|-------5----|---------------|
|----5-------|-------6----|----------|------------|----5-------|-------6-------|
|-3----------|----6-------|----------|------------|-3----------|----6----------|
|------------|-4----------|-3--------|-(3)--------|------------|-4-------------|

  Е Е Е Е Q  Е Е   Е Е Е Е Q.   Е   Е Е Е Е Q.   Е   +Е  Q.   +Q   Q
|----------------|----------------|----------------|-----------------|
|----------------|----------------|----------------|-----------------|
|-----3---5------|---3---6-5------|-----3---5----3-|-(3)-------------|
|-5---3---5----5-|---3---6-5------|-5---3---5----3-|-(3)-5----(5)----|
|-5------------5-|----------------|-5--------------|-----5----(5)----|
|----------------|----------------|----------------|-----------------|

  Е Е Е Е Q  Е Е   Е Е Е Е Q.   Е   Е Е Е Е Q.   Е   Е  Q.   +Q    Е   Е
|----------------|----------------|----------------|----------------------||
|----------------|----------------|----------------|----------------------||
|-----3---5------|---3---6-5------|-----3---5----3-|------------------10--||
|-5---3---5----5-|---3---6-5------|-5---3---5----3-|----5----(5)--12------||
|-5------------5-|----------------|-5--------------|----5----(5)----------||
|----------------|----------------|----------------|----------------------||
|
| Gtr II
| W                W                W                Н.            Q
|----------------|----------------|----------------|----------------------||
|----------------|----------------|----------------|----------------------||
|----------------|----------------|----------------|----------------------||
|----------------|----------------|----------------|---------------8-----||
|----------------|----------------|----------------|---------------8-----||
|----------------|----------------|----------------|---------------8-----||

 Guitar Solo:
   ~~                                   ~~~
   Н        +Е  Е  a       +Е   Е    Е  Q.      Е      q    Е
|---------------------------------|---------------------------|
|-----------------13pb15==(13)r13p|=11---------11b11.5--------|
|-12-------(12)-------------------|----12---------------------|
|---------------------------------|------------------------12-|
|---------------------------------|---------------------------|
|---------------------------------|---------------------------|
|
|  PM----------------------------------------------------------
|  Е Е Е Е   Е  Е  Q                 Е  Е  e Е  Е      Е e  Е
|---------------------------------|---------------------------|
|---------------------------------|---------------------------|
|---------------------------------|---------------------------|
|------5-----5--------------------|--5-----5-------------5----|
|----5---5------5-----------------|-----5--------------5------|
|--3------------------------------|-------------3-------------|

                    ~~~~
   Е  e  Е  S      +S   +Q      e  Е
|------------------------------------|
|-------11-11b13==(11)-(11)r---11-10-|
|-10-12------------------------------|
|------------------------------------|
|------------------------------------|
|------------------------------------|
|
|------------------------------|
|  Е  Е  e  Е       Е    Е   e  Е
|------------------------------------|
|------------------------------------|
|--------5-------------------5-------|
|-----5------------------5-----------|
|--3----------------3----------------|
|------------------------------------|

                                                               ~~~~
         |--3--|
   e  e  S  S  S  Е  e  e e  e    Е  a       +e    Е  a       +Е   +Q     Е Е
|------------------------------|----------------------------------------------|
|------------------------------|--------------------------------------------8-|
|-12-14-12h14p12s10-12-10-8-10-|-10-10pb12==(10)r-10-10pb12==(10)-(10)r-------|
|------------------------------|----------------------------------------------|
|------------------------------|----------------------------------------------|
|------------------------------|----------------------------------------------|
|
|  PM--------------------------------------------------------------------------
|  Е  Е  e        Е  Е  Е Е  Е    Е           Е    e           Е    Е   Е e Е
|------------------------------|----------------------------------------------|
|------------------------------|----------------------------------------------|
|------------------------------|----------------------------------------------|
|--------5----------------3h=5-|-------------------5----------------------5---|
|-----5-----------------5------|--------------5-------------------------5-----|
|--3-----------------3---------|--3---------------------------------3---------|

                              ~~~~
   Е  a  +e        Е  a      +Е   +Е   e e  Е
|--------------------------------------8-------|
|-11-11-(11)pb13==11-11b13==(11)-(11)r---8-11--|
|----------------------------------------------|
|----------------------------------------------|
|----------------------------------------------|
|----------------------------------------------|
|
|------------------------------------------|
|  Е      Е        e          Е    Е   Е e  Е
|----------------------------------------------|
|----------------------------------------------|
|----------------------------------------------|
|------------------5---------------------5-----|
|---------5----------------------------5-------|
|--3-------------------------------3-----------|


   a      +S   S S  S  S S  S   S S  S  S S S  S S S
|----------------8-----------------------------------|
|--------------8---11-10-8---------------------------|
|-10b12==(10)r-------------11--10p8----10-8-7--------|
|-----------------------------------10--------10-8-7-|
|----------------------------------------------------|
|----------------------------------------------------|
|
|          PM-------------------------------|
|          Е     Е     e    Е     Е     Е   e    Е
|----------------------------------------------------|
|----------------------------------------------------|
|----------------------5--------------------3--------|
|----------------5---------(5)----------5------------|
|----------3----------------------3------------------|
|----------------------------------------------------|

                               ~
   Е e e  e e e e e   Е    +S  S +Q    Е Е Е Е
|-------------------|--------------------------|
|-------------------|--------------------------|
|-------------8-7-5-|-3b5==(3)r3-(3)---5-3-2-3-|
|----8-7-10-8-------|--------------------------|
|-10----------------|--------------------------|
|-------------------|--------------------------|
|
|  PM----------------------------------------|
|  Е Е e  Е Е Е e Е   Е     Е     e  Е Е Е e 
|-------------------|--------------------------|
|-------------------|--------------------------|
|-------------------|--------------------------|
|------5--------5---|-------------5--------5---|
|----5--------5-----|-------5----------3-5-----|
|--3--------3-------|-3------------------------|

           .5    |
                                                                  |---3---|
  Е Е Е Е +Е.     +S  +Q      a   +S  S S a   +S  S S S S S S S S S s Е   Е
|---------------------------|-----------3---------3-3------------------------|
|---------------------------|---------3---6b8-(6)-----6-5-3------------------|
|-2-3-2-0-(0)-----(0)-(0)---|-5b7-(5)-----------------------6-5p3---5-----3--|
|---------------------------|-------------------------------------5----------|
|---------------------------|------------------------------------------------|
|---------------------------|------------------------------------------------|
|
| PM--------------------------------------------------------------|
| Е Е e Е  Е    Е      e  Е        Е    Е         e   Е   Е   Е   e     Е
|---------------------------|------------------------------------------------|
|---------------------------|------------------------------------------------|
|---------------------------|---------------------5---------------5----------|
|-----5----------------5----|-----------5-------------5-------5--------------|
|-3-5------3----5-----------|------3----------------------3------------------|
|---------------------------|------------------------------------------------|

       |---------3---------|
  a   +q    a   +q    a   +q    S   +Е.   e Е
|---------------------------------------------|
|-----------------------------------------3-6-|
|-5b7-(5)---5b7-(5)---5b7-(5)---5b7-(5)-------|
|---------------------------------------------|
|---------------------------------------------|
|---------------------------------------------|
|
|      PM--------------------------------------
|      Е  Е         e         Е Е       Е Е Е
|---------------------------------------------|
|---------------------------------------------|
|---------------------------------------------|
|-------------------5---------------------5---|
|---------5-----------------------------5---5-|
|------3------------------------3-------------|

                                          ~~
  Е e Е Е Е a    +Q.       a    +Е  Е e Е Q.     Е
|-3-------6-8b10-(8)-----|-8b10-(8)-8-6-8----------|
|---3-6-8----------------|----------------8------8-|
|------------------------|-------------------------|
|------------------------|-------------------------|
|------------------------|-------------------------|
|------------------------|-------------------------|
|
|------------------------------------------------|
| Е Е e Е Е       Е  e Е         Е  Е e Е Е  Е e Е
|------------------------|-------------------------|
|------------------------|-------------------------|
|------------------------|-------------------------|
|-----5--------------5---|------------5--------5---|
|---5-------------5------|----------5--------5-----|
|-3-------3--------------|-------3--------3--------|

                                                                ~~~~
   Е  a      +S  S S  S  S  S  S S S  S e  e    e  Е e  a      +Е   +Q.       Е
|------------------8--------8------8----8-10-|-11-13---13b15==(13)-(13)r-----13b15-|
|-11-------------8---11--8----11-8---11------|-------------------------------------|
|----10b12==(10)-----------------------------|-------------------------------------|
|--------------------------------------------|-------------------------------------|
|--------------------------------------------|-------------------------------------|
|--------------------------------------------|-------------------------------------|
|
|  PM----------------------------------------------------------------------|
|  Е          Е    e     Е     Е   Е    e  Е    Е  Е Е          Е    Е   Е Q
|--------------------------------------------|-------------------------------------|
|--------------------------------------------|-------------------------------------|
|------------------5--------------------3----|-------------------------------------|
|-------------5---------(5)--------5-------5-|-------5---------------------5-------|
|--3---------------------------3-------------|-----5------------5----3---5---------|
|--------------------------------------------|--3----------------------------------|

                                    ~~~~~
   +Е   Е   a       +Е   Е  a      +Q.     Е
|-(13)-13-(13)pb15-(13)-13-13b15==(13)r---13--|
|---------------------------------------------|
|---------------------------------------------|
|---------------------------------------------|
|---------------------------------------------|
|---------------------------------------------|
|
|   Q                Q              Н
|---------------------------------------------|
|---------------------------------------------|
|-----------------------------------5---------|
|--------------------5------------------------|
|---3-----------------------------------------|
|---------------------------------------------|

                                 ~~~~
    a       +Е   Е  Е  Е  a     +Q.   Е
|-(13)pb15-(13)-13-10-------------------|
|---------------------13-13b15-(13)-----|
|---------------------------------------|
|---------------------------------------|
|---------------------------------------|
|---------------------------------------|
|
|            Q      Q            Н
|---------------------------------------|
|---------------------------------------|
|--------------------------------5------|
|-------------------5-------------------|
|------------3--------------------------|
|---------------------------------------|


  a   +Е  e a     +S  S e e Е     Q     Е e Е Е a     +Н
|------------------------------------|----8-6-8-8b10==(8)---------|
|---------6--------------------------|-/8-------------------------|
|-5b7-(5)---5pb6==(5)r5-3-5-3b3.5----|----------------------------|
|---------------------------------5--|----------------------------|
|------------------------------------|----------------------------|
|------------------------------------|----------------------------|
|
|      W                                Q   Q          Q   +Q
|------1-----------------------------|--1-------------------------|
|------1-----------------------------|--1-------------------------|
|------x-----------------------------|--0-------------------------|
|------3-----------------------------|------3---------------------|
|------x-----------------------------|----------------------------|
|------1-----------------------------|-----------------1---(1)/---|

                       |---3---|   |-3--|
  +Е  e e e e e e e    q   q   q   q  q Q
|-(8)-8-8-8-8-8-8-8r-|-9---9---9---9--8-----|
|--------------------|------------------6---|
|--------------------|----------------------|
|--------------------|----------------------|
|--------------------|----------------------|
|--------------------|----------------------|
|
|  Е  Е Е Е Q   Е Е    Е Е   Е   Е Q.     Е
|--------------------|----------------------|
|--------------------|----------------------|
|-------3---5--------|---3-------6-5--------|
|--5----3---5-----5--|---3-------6-5--------|
|--5--------------5--|----------------------|
|--------------------|----------------------|

            >
            ~~~
  +Q       +Н.            +Н.            Q
|-----------------------|---------------------||
|-(6)b8====(6)----------|-(6)r----------------||
|-----------------------|---------------------||
|-----------------------|---------------------||
|-----------------------|---------------------||
|-----------------------|---------------------||
|
|  Е     Е  Е  Е Q.   Е   +Е   Q.   +Q.    Е
|-----------------------|---------------------||
|-----------------------|---------------------||
|-----------3----5----3-|-(3)-----------------||
|--5--------3----5----3-|-(3)--5----(5)-------||
|--5--------------------|------5----(5)-------||
|-----------------------|---------------------||

  Gtr I
  Е Е Е Е Q  Е Е   Е Е Е Е Q.   Е   Е Е Е Е Q.   Е   +Е  Q.   +Q    Е   Е
|----------------|----------------|----------------|-----------------------|
|----------------|----------------|----------------|-----------------------|
|-----3---5------|---3---6-5------|-----3---5----3-|-(3)-----------(5)----|
|-5---3---5----5-|---3---6-5------|-5---3---5----3-|-(3)-5----(5)--(5)----|
|-5------------5-|----------------|-5--------------|-----5----(5)--(5)----|
|----------------|----------------|----------------|-----------------------|

 Verse:
  PM----------------------------------------------------------------|
  Е Е e Е Е Е e Е   Е Е e Е Е Е e Е   Е Е e Е Е Е e Е   Е Е e Е Е e Q
|-----------------|-----------------|-----------------|-----------------|
|-----------------|-----------------|-----------------|-----------------|
|-----------------|-----------------|-----------------|-----------------|
|-----5-------5---|-----5-------5---|-----5-------3---|-----5-3---------|
|---5-------5-----|---5-------5-----|---5-------3-----|---5-------5-----|
|-3-------3-------|-3-------3-------|-3-------1-------|-3-------3-------|

  PM--------------------------------------------------------------------|
  Е Е e Е Е Е e Е   Е Е e Е Е Е e Е   Е Е e Е Е Е e Е   S S Е e Е Е Е e Е
|-----------------|-----------------|-----------------|-------------------|
|-----------------|-----------------|-----------------|-------------------|
|-----------------|-----------------|-----------------|-------------------|
|-----5-------5---|-----5-------5---|-----5-------3---|-----5-5-------5---|
|---5-------5-----|---5-------5-----|---5-------3-----|---5---------5-----|
|-3-------3-------|-3-------3-------|-3-------1-------|-3---------3-------|

  PM------------------------------------------------------------------|
  Е Е e Е Е Е e Е   Е Е e Е Е Е e Е   Е Е e Е Е Е e Е   Е Е e Е Е Е e Е
|-----------------|-----------------|-----------------|------------------|
|-----------------|-----------------|-----------------|------------------|
|-----------------|-----------------|-----------------|------------------|
|-----5-------5---|-----5-------5---|-----5---3---3---|-----5-------5----|
|---5-------5-----|---5-------5-----|---5-------3-----|---5-------5---5--|
|-3-------3-------|-3-------3-------|-3---------------|-3-------3--------|

  PM------------------------------------------------------------------|
  Е Е e Е Е Е e Е   Е Е e Е Е Е e Е   Е Е e Е Е Е e Е   Е Е e Е Е Е e Е
|-----------------|-----------------|-----------------|------------------|
|-----------------|-----------------|-----------------|------------------|
|-----------------|-----------------|-----------------|------------------|
|-----5-------5---|-----5-------5---|-----5-------3---|-----5-------5----|
|---5-------5---5-|---5---5---5---5-|---5---5---3---3-|---5---5---5------|
|-3-------3-------|-3-------3-------|-3-------1-------|-3-------3-----3--|

 Out-Chorus:
  Q  Q  Н      Q  Q  Q.   Е   Q  Q  Е Q.
|------------|--------------|-------3------|
|------------|--------------|--------------|
|-------5----|--------------|----0----0----|
|----5-------|-------6------|----0---------|
|-3----------|----6---------|--------------|
|------------|-4------------|-3------------|

  +W           Q  Q  Н      Q  Q  Н
|------------|------------|------------|
|------------|------------|------------|
|-(0)--------|-------5----|------------|
|------------|----5-------|-------6----|
|------------|-3----------|----6-------|
|------------|------------|-4----------|

   4/4
    Е Е Е Е Q.   Е   Е Е Е Е Q.   Е   Е Е Е Е Q.   Е   +Е  Q.   +Q.   Е   3x
||------------------|----------------|----------------|--------------------||
||o-----------------|----------------|----------------|-------------------o||
||------------------|----------------|----------------|--------------------||
||--4-----5----7----|---4----5----8--|--3x------------|--------------------||
||o-4-----5----7----|---4----5----8--|----------------|-------------------o||
||--2-----3----5----|---2----3----6--|----------------|--------------------||

  PM----------------------------------------------|
  Е Е e Е Е Е e Е   Е Е e Е Е Е e Е   Е Е e Е Е Е e Е   Е Q.   +Q    Q
|-----------------|-----------------|-----------------|--------------------|
|-----------------|-----------------|-----------------|--------------------|
|-----------------|-----------------|-----------------|--------------------|
|-----5-------5---|-----5-------5---|-5---5---3---3---|---5----(5)--(5)---|
|---5-------5-----|---5-------5-----|---5-------3-----|---5----(5)--(5)---|
|-3-------3-------|-3-------3-------|-----------------|--------------------|
 
 

Видео