Deep Purple - Love Child, аккорды

Прокрутка
Тональность
Шрифт
100
Проигрыш:
D--------------5//7----5---------------
A|-------3-----5-7-3---0--------------7----0-3-5-3-
E|-5-----------------------------------------------


A|-7//1

Проигрыш - 4 раза

   F
D|-3-3-3-3-3-------3-3-3-3-
A|-3-3-3-3-3-------3-3-3-3-
E|-1-1-1-1-1-------1-1-1-1-
  You can walk through fire

D|-3-3-3-3-3-------3-3-3-3-
A|-3-3-3-3-3-------3-3-3-3-
E|-1-1-1-1-1-------1-1-1-1-
  Make the north wind blow

Squeeze ´n´ tease me honey
When you shake your body

A|------2~------
You move my soul

Проигрыш - 2 раза

Let me be your lover
Won´t you let me be your child
Take me through your universe
Y´know that when you smile
You drive me wild
 
Проигрыш - 2 раза

D|-3--2--------------------------------
A|-------5--3---5----------------------
E---------3----5-----------
			   Love child

D|-3--2--------------------------------
A|-------5--3---5----------------------
E--------3--5--------------
		       Driving me wild

D|-3--2--------------------------------
A|-------5--3---5----------------------
E---------3----5-----------
			   Love child

D|-3--2--------------------------------
A|-------5--3---5----------------------
E---------3----------------
                     Always teasin´ me
Проигрыш - 2 раза

You can ride your pony
Day dream in fairy tales
All I know is I need more
When I see you dance the seven veils

Проигрыш - 2 раза

Седующая тема играется 8 раз!
                                             A9+
H---------------------------------8-
G---------------------------------6-
D|------7-----5-------5---5-7-------7-----5---5-
A|-0-7-----7--------7----------0-7-----7------7-

Проигрыш 4 раза
 
 

Видео