Deep Purple - Rat Bat Blue, аккорды

Прокрутка
Тональность
Шрифт
100
Проигрыш1 :
D-------------------------------------------
A|----7--7-5-----7--5----------5^7-----7--7-5-----7--5~-
E|-0----------0--------0----0-------0----------0--------

Проигрыш2 :
G|-------5-----------------------------
D|-----5-------------------------------
A|-5-7-----6-5-3-5-3-0-3-5-3-5-6-5-3-0-


Проигрыш1 - 6 раз

A                    C
 Hey baby, what you gonna do
G                   A 
 When the lights go up on you?
Проигрыш2
A                          G
 What´s your name, can I drive you home?
C             A 
 Sweet woman, are you all alone?
Проигрыш2
D
 You´re the one for me
                                          A
 I´m gonna keep you busy as a bee, could bee, could be

Проигрыш2

D C A
      Rat bat blue

Проигрыш1 - 4 раза


Now, get up woman, don´t be slow
It´s getting late and I wanna go
No cause for acting big
Got to love, got to live
Stick around with me
I´m gonna show you things you never thought you´d see, you see

Rat bat blue
You´re so fine
Rat bat blue

Этот проигрыш играется 12 раз (потом его просто не слышно:) :
A|----------3-------------------3----
E|-0--3--5-----5------3--5---------5-
 
Далее - великолепный соляк в исполнении Джона Лорда на
органе (подобрать его на аккустике(!) мне оказалось слабо:)

Проигрыш1 - 4 раза

Get out! You didn´t understand
I´m a hard loving man
No way you can satisfy
The way you look, the way you lie
And when you shut the door
Make sure I don´t see you ´round here no more, no more
Rat bat bat bat blue
Alright

Все аккорды, конечно, играются квинтами:

   G   A   C   D
G|--- --- -5- -7-
D|-5- -7- -5- -7-
A|-5- -7- -3- -5-
E|-3- -5- --- ---
 
 

Видео