Deep Purple - Sail Away, аккорды

Прокрутка
Тональность
Шрифт
100
Вступление:
D|-------5----------------------------5------------------
A|----7-----7------7-------5^7-----7-----7--------5------
E|-0------------0-----5^7-------0------------5^7-----3---

D|-------5----------------------------5-----7^8^7--5-------
A|----7-----7------7-------5^7-----7-----7------------5--7-
E|-0------------0-----5^7-------0--------------------------

Основная тема:
D|-------5----------------------------5------------------
A|----7-----7------7-------5^7-----7-----7--------5------
E|-0------------0-----5^7-------0------------5^7-----3---

D|-------5----------------------------5------------------
A|----7-----7------7-------5^7-----7-----7---------------
E|-0------------0-----5^7-------0------------5^7--5--3---

If you´re driftin´ on an empty ocean
With no wind to fill your sail,
Ене future, your horizon,
It´s like searchin´ for the Holy Grail.
You feel there´s no tomorrow
As you look into the water below.
It´s only your reflection
And you still ain´t got no place to go.

 B    A     G
Time will show,
  Em   D        C 
When, I don´t know.

Припев:
 A           Em
Sail away tomorrow,
 A            Em
Sailin´ far away.
    A                Em
To find it steal or borrow.
G         A        B      A     G       Bm
I´ll be there someday yea-yea-yeah yea-ye-yeah.

Основная тема:
D|-------5----------------------------5------------------
A|----7-----7------7-------5^7-----7-----7--------5------
E|-0------------0-----5^7-------0------------5^7-----3---

D|-------5----------------------------5------------------
A|----7-----7------7-------5^7-----7-----7---------------
E|-0------------0-----5^7-------0------------5^7--5--3---

Oh, woman, I keep returnin´
to sing the same old song.
The story´s been told, now I´m gettin´ old.
Tell me, where do I belong?
Feel like I´m goin´ to surrender,
Hard times I´ve had enough.
If I could find a place to hide my face,
I believe, I could get back up.

 B    A     G
Time will show, when,
 Em    D   C
I don´t know.

Припев:
 A           Em
Sail away tomorrow,
 A            Em
Sailin´ far away.
    A                Em
To find it steal or borrow.
G         A        B      A     G       Bm
I´ll be there someday yea-yea-yeah yea-ye-yeah.

 A           Em
Sail away tomorrow,
 A            Em
Sailin´ far away.
    A                Em
To find it steal or borrow.
G         A        B      A     G       Bm
I´ll be there someday yea-yea-yeah yea-ye-yeah.

 A           Em
Sail away tomorrow,
 A            Em
Sailin´ far away.
    A                Em
To find it steal or borrow.
G         A        B      A     G       Bm
I´ll be there someday yea-yea-yeah yea-ye-yeah.

Комментарий автора:

Аккорды играть квинтами:
   E   G   A   B
D|-2- -5- -7- -9-
A|-2- -5- -7- -9-
E|-0- -3- -5- -7-
 
 

Видео