Deep Purple - When A Blind Man Cries, аккорды

Прокрутка
Тональность
Шрифт
100
Intro:
                                                                Bm
E|------------------------------------------------------------------------|
B|------------------------------/12------/12-10---------------------------|
G|----------/11~~------------11-----------------/11-----------------(7)---|
D|---7-9~---------7-9~---/12--------7-9~------------12--7-9~------7-----9-|
A|------------------------------------------------------------7h9---------|
E|------------------------------------------------------------------------|                                         
         
Verse 1:
Bm
If you´re leaving, close the door.
A                        Bm
I´m not expecting people anymore.
Bm
Hear me greaving, lying on the floor.
A7                          Bm
Whether I´m drunk or dead I really ain´t too sure.

Bm              D
I´m a blind man, I´m a blind man.
G               Em
And my world is pale.
Bm
When a blind man cries,
D             G                     Bm
Lord you know there ain´t no sadder tale.
       
Solo:                                         
E|-------------------------------------------------------------------------
B|---------------------------------------10--------------------------------
G|-----7-9b11-9b11-9b11-9b11-9b11-9b11~~----11p11----9b11-9b11-9b11-9b11~~-
D|---9--------------------------------------------12-----------------------
A|-------------------------------------------------------------------------
E|-------------------------------------------------------------------------
                                         
E|----------------------------------------------------------------7-10-/12-
B|----------------------------7-10-10b12-10b12-10b12-10b12~~-7-10----------
G|---7h9--p7-6~-7~p9~--7p6-------------------------------------------------
D|-------------------------9~----------------------------------------------
A|-------------------------------------------------------------------------
E|-------------------------------------------------------------------------
                                         
E|---10-9-7---5-----7-------------------------------------------------------
B|----------7---6-7---7-----------------------------------------------------
G|----------------------7---9-7h9p7-6~-7~-9~---------------7-9b11-9b11-9b11-
D|------------------------9------------------9~-7~/9~----9------------------
A|--------------------------------------------------------------------------
E|--------------------------------------------------------------------------

E|------------------------------------------10-----------10-----------------
B|--------------------------------------/12----/12~~-/12----/12~~-/12-/12~~-
G|---9b11~~----7-9b11-9b11-9b11-9b11~~--------------------------------------
D|-----------9--------------------------------------------------------------
A|--------------------------------------------------------------------------
E|--------------------------------------------------------------------------

E|---/12-10-/12-10-/12-10-/12~~-10-----------------------------------------
B|---------------------------------12-10----------10-----------------------
G|---------------------------------------/11-11~~----11p10----10---9---7~~-
D|---------------------------------------------------------12----X---9-----
A|-------------------------------------------------------------------------
E|-------------------------------------------------------------------------

E|--------------------12b14-12b14r12-10------|
B|--------------/12~~-------------------12~~-|
G|---10-9-7---7------------------------------|
D|----------9--------------------------------|
A|-------------------------------------------|
E|-------------------------------------------|

Verse 2:
Bm
Had a friend once, in a room.
A
Had a good time, but it ended much to soon.
Bm
In a cold month, in that room.
A7                     Bm
Found a reason for the things we had to do.

Refrain:
Bm              D
I´m a blind, I´m a blind man.
G               Em
Now my world is cold.
Bm
When a blind man cries,
D                G                 Bm
Lord you know he feels it from his soul

Outro:
E|-----------------------------------12b14-12-10-1214---r12---------10b12-10-
B|------10-11b12-11b12-11b12-11b12~~-----------------------------10----------
G|---11-------------------------------------------------------11-------------
D|---------------------------------------------------------------------------
A|---------------------------------------------------------------------------
E|---------------------------------------------------------------------------

E|---9----------------------|
B|-----12----10-------10----|
G|--------11----11-10----11-|
D|--------------------------|
A|--------------------------|
E|--------------------------|
 
 

Видео