Deftones - 7 Words, аккорды

Прокрутка
Тональность
Шрифт
100
this is my first tab of bass 
tuning   EADG

riff
  ------------------------------------------------------------
  ------------------------------------------------------------
  ---5/7-5---------5---5--------------------------------------
  ---------5--5--5---7----------------------------------------

interlude
  
  ------------------------------------------------------------
  ------------------------------------------------------------
  -----------1--0--0--1---------------------------------------
  ---0--2--0--------------------------------------------------


  im from mexico this my favorite band.
  listen the song.
 
 

Видео