Deftones - Back To School, аккорды

Прокрутка
Тональность
Шрифт
100
tabbed by:Kyle Woodward		

Back to School - The Deftones

Tuning (Low to High)- D A D G B E

	Intro

E|8-8-8-888-9-9-9-999-9-8-8-88-8-9-9-999-
B|----0-------0-0-----0-0--------0-------
G|---------------------------------------
D|---------------------------------------
A|---------------------------------------
D|---------------------------------------


Heavy Part before Verse and before the rest half-way through song


E|-------------------------
B|-------------------------
G|-------------------------
D|8-0--8-0--8-0--8-0-------
A|8-0--8-0--8-0--8-0-------
D|8-0--8-0--8-0--8-0-------


	Verse (These are the chords in order, the rythm is easy to work out but hard to tab)

E|------------------
B|------------------
G|------------------
D|-5--4--8--0------- Repeat through verse
A|-5--4--8--0-------
D|-5--4--8--0-------


	Chorus (Again, I haven't put in the rhythm )

E|----------------
B|----------------
G|---------------- Repeat through Chorus
D|-8--0--5--4-----
A|-8--0--5--4-----
D|-8--0--5--4-----

I think that's about it, it sounds OK.
 
 

Видео