Deftones - Battle Axe, аккорды

Прокрутка
Тональность
Шрифт
100
Artist: Deftones
Album: Deftones
Song: Battle Axe
Tuning: G# Eb Ab Db Gb Bb 
(1/2 step down...G# 1 1/2 step down from standard B)

Intro
Bb--------------3---5-3---------------------------------
Gb---------0-------------0---0---0---0------------------
Db----4------4---4--------4---4---4---4-0-0-------------
Ab-2----2-----------------------------------------------
Eb------------------------------------------------------
G#------------------------------------------------------

Verses
Bb------------------------------------------------------
Gb------------------------------------------------------
Db--9-------------------------------12------------------
Ab--x-play a few times---------------x------------------
Eb--7-with slight bend on occasion--10------------------
G#------------------------------------------------------

Chorus
Bb------------------------------------------------------
Gb------------------------------------------------------
Db-4----10-----7-----9-----------------------------------
Ab-2-----8-----5-----7----------------------------------
Eb-2-----8-----5-----7----------------------------------
G#-2-----8-----5-----7----------------------------------
(figure out the strumming...its simple)



Good song..pretty straightforward
 
 

Видео