Deftones - Bloody Cape, аккорды

Прокрутка
Тональность
Шрифт
100
Deftones 
Bloody Cape
Tuning: G# C# F# B Eb g#

This is a six string tab for this song, which is played by stephen on a detuned
seven string, but this is as close as its gonna get if you don't have a 7.

strumming patterns not given, you should be able to figure it out.

Intro/verse
-5---3--
-8---4--
-0---0--
-x---x--
-7---3--
--------

chorus
-----------------------------
-----------------------------
--------------------------5--
---4----4----4---4--------x--
---4----4----4---4--------3--
-0-2--0-2--0-2-0-2--3-2-0----

then next time go
-------------------------------
-------------------------------
--------------------------5/7--
---4----4----4---4--------x-x--
---4----4----4---4--------3/5--
-0-2--0-2--0-2-0-2--3-2-0------

heavy breakdown
repeat alot
-------
-------
-------
-2-4-4-
-2-4-4-
-0-2-2-
 
 

Видео